Search tabs:
Browse artists: 0-9 | A | B | C | D | E | F | G | H | I | J | K | L | M | N | O | P | Q | R | S | T | U | V | W | X | Y | Z
/ Dimmu Borgir / Death Cult Armageddon (2003) / Eradication Instincts Defined guitar tab

by:LeperMessiah
dimmu borgir
eradication instincts defined
dca

.  - palm mute           /  - slide up to
\  - slide down to       ~  - vibrato
h  - hammer on           b  - Bend
p  - pull off            Suffixes for bend
t  - tap                 f  - full bend    h - half bend
ph - pinched harmonic    q  - quarter bend t - tap bend
*  - see comment         ^  - Hold bend    r release bend
x  - Stuccatto           ~  - vibrato bend
,  - slight palm mute    () - ghost note, sustained note
"  - tremolo note        <> - Trill

Riff 1
-------------------
-------------------
-------------------
----4--------------
----4--5-5---------
2-2-2--3-3---------
. .    . .

Riff 2
-----------------------------------------------------------------------
-----------------------------------------------------------------------
-----------------------------------------------------------------------
4-4-4-4-4-4-4-4---5-5-5--3-3-3---4-4-4-4-4-4-4-4---5-5-5--6-6-6--------
4-4-4-4-4-4-4-4---5-5-5--3-3-3---4-4-4-4-4-4-4-4---5-5-5--6-6-6--------
2-2-2-2-2-2-2-2---3-3-3--1-1-1---2-2-2-2-2-2-2-2---3-3-3--4-4-4--------

Fill 1
-------------
-------------
-------------
4---3---4----
4---3---4----
2---1---2----

Riff 3
------------------------------------------
------------------------------------------
------------------------------------------
--------4----4-----------4-------5--------
--------4----4-----------4-------5--------
2-2-2-2-2----2-----2-2-2-2-3-3-3-3--------
. . . .            . . .   . . .

Riff 4
-------------------------
-------------------------
-------------------------
4-------4-------4--5-----
4-------4-------4--5-----
2-------2-------2--3-----

Riff 5
-----------------------
-----------------------
-----------------------
4-------------4--------
4-------------4--------
2------2-2----2--------
       . .

Riff 6
----------------------------------
----------------------------------
----------------------------------
-------------------5--------------
4--4-4--4-4--4-4---5--------------
2--2-2--2-2--2-2---3--------------
.  . .  . .  . .

Riff 7(Ending Riff)
-------------------------------------
-------------------------------------
-------------------------------------
4--5--4--5--5------------------------
4--5--4--5--5------------------------
2--3--2--3--3------------------------


Dimmu Borgir albums
2003 Death Cult Armageddon
2001 Puritanical Euphoric Misanthropia
1999 Devil's Path/In the Shades of Life
1999 Spiritual Black Dimensions
1998 Godless Savage Garden
1997 Enthrone Darkness Triumphant
1994 For All Tid
Death Cult Armageddon tabs
01Allegiance tabbass tab
02Progenies of the Great Apocalypse tabbass tab
03Lepers Among Us tabbass tab
04Vredesbyrd tabbass tab
05For the World to Dictate Our Death tabbass tab
06Blood Hunger Doctrine tabbass tab
07Allehelgens Død I Helveds Rike tabbass tab
08Cataclysm Children tabbass tab
09Eradication Instincts Defined tabbass tab
10Unorthodox Manifesto tabbass tab
11Heavenly Perverse tabbass tab

 

1