Search tabs:
Browse artists: 0-9 | A | B | C | D | E | F | G | H | I | J | K | L | M | N | O | P | Q | R | S | T | U | V | W | X | Y | Z
/ Dimmu Borgir / Death Cult Armageddon (2003) / Vredesbyrd guitar tab

by:LeperMessiah
dimmu borgir
vredesbyrd
dca

Riff 1a
e---------------------------------------
b---------------------------------------
g---------------------------------------
d-----------------------3-------------3-
a-------------------4-3-1-11111-2-3\4-3-
e-1111111111111111--------------0-1\2-1-
  ................        .....          (4 times)

Riff 2
Gtr 1
e--------------------------------------
b--------------------------------------
g----1010-1313-1010-1212---------------
d-10---------------------1313-1010-11--
a--------------------------------------
e--------------------------------------

e--------------------------------------
b--------------------------------------
g----1010-1313-1010-1212---------------
d-10---------------------1313-1010-11--
a--------------------------------------
e--------------------------------------

e--------------------------------------
b--------------------------------------
g---66-88----1010-66----6--------------
d-6-------66---------66----------------
a--------------------------------------
e--------------------------------------

e--------------------------------------
b--------------------------------------
g--------------------------------------
d---88-1010----1111-1010-88-10---------
a-8---------88-------------------------
e--------------------------------------

Gtr 2
e--------------------------------------------
b--------------------------------------------
g--------------------------------------------
d------------------------------------------3-
a------------------44444444-11111111-2-3\4-3-
e-1111111111111111-------------------0-1\2-1-
  ................ ........ ........         (4 times)

Riff 1b
e---------------------------------------------------
b---------------------------------------------------
g---------------------------------------------------
d-----------------------------------3-------------3-
a---------2-4-3-------1---1-3-4---3-1-1-1-1-2-3\4-3-
e-1-1-1-1-------1-1-1---1-------------------0-1\2-1-
  . . . .       . . .   .           . . .           (4 times)

Riff 3a
e------------------------------------------
b------------------------------------------
g------------------------------------------
d-5--4-5-8-7-4-7-8--5--4-5-8-4--8----------
a-3--2-3-6-5-2-5-6--3--2-3-6-2--6----------
e-3--2-3-6-5-2-5-6--3--2-3-6-2--6----------
     . . . .   . .     . . .

e------------------------------------------
b------------------------------------------
g------------------------------------------
d-5--4-5-8-7-4-7-8--5--4-5-8-4--6----------
a-3--2-3-6-5-2-5-6--3--2-3-6-2--4----------
e-3--2-3-6-5-2-5-6--3--2-3-6-2--4----------
     . . . .   . .     . . .                (2 times)

Riff 3b
e------------------------------------------
b------------------------------------------
g------------------------------------------
d-5----4----8----5----4----6---------------
a-3----2--2-6----3----2--2-4---------------
e------------------------------------------
          .              . .

Play Riff 3a 1 time then:

Transition 1
e------------------------------------------
b------------------------------------------
g------------------------------------------
d------------------------------------------
a------------------------------------------
e-0-0-0-0-0-0-0-0-0-0-0-0-0-0-0-0-12/3-----
  . . . . . . . . . . . . . . . .

Riff 4
e--------------------------------------------------------------------------
b--------------------------------------------------------------------------
g--------------------------------------------------------------------------
d----------9-----------------9-10-9-8--------4--------5--------8/7-8/7-8/7-
a-2--------7--------2--------7--8-7-6--------2--------3--------6/5-6/5-6/5-
e-0-000000---000000-0-000000----------000000---000000---000000-------------
    ......   ......   ......          ......   ......   ......

e---------------------------------------------------------------------------
b---------------------------------------------------------------------------
g---------------------------------------------------------------------------
d----------9-----------------9-10-9-8--------4--------5---------------------
a-2--------7--------2--------7--8-7-6--------2--------3-333333--------------
e-0-000000---000000-0-000000----------000000---333333----------1111-4-1-4-1-
    ......   ......   ......          ......   ......   ...... .... . . . .  (2 times)

Play Riff 3a 2 times then:

Riff 4a
e----------------------------------------------------------------------
b----------------------------------------------------------------------
g----------------------------7-7-7-------------------------------------
d----------------------------7-7-7-------------------------------------
a-4-444444-4-444444-4-444444-5-5-5-4-444444-4-444444------6-6------5-5-
e----------------------------------------------------4444-4-4-3333-3-3-
  . ...... . ...... . ......       . ...... . ...... ....     ....      (4 times)

Riff 4b
e---------------------------------------------------------------------
b---------------------------------------------------------------------
g---------------------------------------------------------------------
d----------------------------10-10-10---------------------------------
a-7-777777-7-777777-7-777777--8--8--8-7-777777-7-777777---------------
e-------------------------------------------------------777777-666666-
  . ...... . ...... . ......          . ...... . ...... ...... ......   (2 times)

Play riff 4a 2 times then:

Transition 2
e---------------------------------------
b---------------------------------------
g---------------------------------------
d----------------------3--------------3-
a-3-3-3-3-3-3-3-3--4-3-1-11111--2-3\4-3-
e-1-1-1-1-1-1-1-1---------------0-1\2-1-
  . . . . . . . .        .....

Play Riff 1a 4 times
Play Riff 2 4 times then:

e---------
b---------
g---------
d-3-3-3-3-
a-3-3-3-3-
e-1-1-1-1-
  . . . .


Dimmu Borgir albums
2003 Death Cult Armageddon
2001 Puritanical Euphoric Misanthropia
1999 Devil's Path/In the Shades of Life
1999 Spiritual Black Dimensions
1998 Godless Savage Garden
1997 Enthrone Darkness Triumphant
1994 For All Tid
Death Cult Armageddon tabs
01Allegiance tabbass tab
02Progenies of the Great Apocalypse tabbass tab
03Lepers Among Us tabbass tab
04Vredesbyrd tabbass tab
05For the World to Dictate Our Death tabbass tab
06Blood Hunger Doctrine tabbass tab
07Allehelgens Død I Helveds Rike tabbass tab
08Cataclysm Children tabbass tab
09Eradication Instincts Defined tabbass tab
10Unorthodox Manifesto tabbass tab
11Heavenly Perverse tabbass tab

 

1