Search tabs:
Browse artists: 0-9 | A | B | C | D | E | F | G | H | I | J | K | L | M | N | O | P | Q | R | S | T | U | V | W | X | Y | Z
/ Dimmu Borgir / Puritanical Euphoric Misanthropia (2001) / Absolute Sole Right guitar tab

Band:  (Dimmu Borgir)
Album: (Puritanical Euphoric Misanthropia)
Song:  (Absolute Sole Rite)

Copyright (c)  (Nuclear Blast) (2001)
Version 1.0 - (February)

Transcribed By: (BestialWarrior)
Email:          (Bestialson2003@yahoo.com)


.  - palm mute           /  - slide up to
\  - slide down to       ~  - vibrato
h  - hammer on           b  - Bend
p  - pull off            Suffixes for bend
t  - tap                 f  - full bend    h - half bend
ph - pinched harmonic    q  - quarter bend t - tap bend
*  - see comment         ^  - Hold bend    r release bend
x  - Stuccatto           ~  - vibrato bend
,  - slight palm mute    () - ghost note, sustained note
"  - tremolo note        <> - Trill
G= Gallop.
Tunning E A D G B E
Note:  This is the rythym guitar only.  I'll add the lead later on.This tune
also plays faster than it may seem..It may not look exact..
Riff#1. Fast.
|---------------------------------------------------------------------------|
|---------------------------------------------------------------------------|
|---------------------------------------------------------------------------|
|---------99----9-----------------------------99----9-----------------------|
|2-2------88888877777-2------4/6-6\4-2-2------88888877777-------------5\4-4-|
|0-0-0000-------------0-0000-2/4-4\2-0-0-0000-------------4-444-3-333-3\2-2-|
     ....   .... ....   ....             ....   .... .... . ... . ...
                                                             G     G
Riff#2.Mid paced tempo.
|---------------------------------------------|
|---------------------------------------------|
|---------------------------------------------|
|---------------------------------------------|
|2---------6----5-------2---------6-------2---|
|0------0344----3----0340------0344----034-43-|
        ...          ...       ...     ......
Repeat Riff#1,2.
 Riff#3.  All Palm Muted...Fast/choppy like..
|--------------------------------------------------------------------------
|--------------------------------------------------------------------------
|--------------------------------------------------------------------------
|------2222222222111111------222222111111----------------------------------
|----------------------------------------333333222222----------------------
|000000----------------000000------------------------1111111111444444111111
 ..........................................................................
Riff#3, continued... Fill 1.    Transition.
------------|-------|-------||    |---|
------------|-------|-------||    |---|
------------|-------|-------||    |---|
------------|-------|000111-||    |8\3|
333333222222|-------|-------||    |6\1|
------------|333333-|-------||    |---|
............ ......  ......         *(slow slide)

Riff#4.Fast.                                     **Fill 1.
|------------------------------------------|----|----------------||
|------------------------------------------|----|----------------||
|99999999999999--------------99999999999999|----|----------------||
|77777777777777--------------77777777777777|8\3-|6----5----4-----||
|--------------88888888888888--------------|6\1-|444443333322222-||
|--------------66666666666666--------------|----|----------------||
  .... .... ... .... .... ... .... .... ...       .... .... ....
                                             *(Slow Slide)
Riff#5. Fast.
|----------------------------------------------------|
|----------------------------------------------------|
|-------------------------------------------------1--|
|6----6----6---------------------------------------2-|
|4444444444444445----5----5----2----2----2-----002---|
|---------------333333333333333000000000000000-------|
  .... .... .... .... .... .... .... .... .... ...
Repeat riff#4. then this: This acts as another fill for riff #4.
**
|----------------------------------|
|----------------------------------|
|6-----5-----4-----6-----5-----4---|
|----------------------------------|
|4-0-0-3-0-0-2-0-0-4-0-0-3-0-0-2-0-|
|----------------------------------|
   . .   . .   . .   . .   . .   .

Repeat Riff#2.
Riff#6.
|-----------------------------------------------------------|
|-----------------------------------------------------------|
|-----------------------------------------------------------|
|-----------------------------------------------------------|
|2-------------------------------2----------------------2---|
|0------034-4444444433333333-034-0------034-44444444-034-43-|
        ... ................ ...        ... ........ ......

Riff#7. Mid-paced..                       Fill 1.
|-------------------------------------|--|------|
|-------------------------------------|--|------|
|-----9-8-------9-8--5-4----------5-4-|--|7\6/8-|
|------------------------3----6-3-----|5-|------|
|2----7-6--2----7-6--3-2----------3-2-|--|5\4/6-|
|0---------0-------------1----4-1-----|3-|------|

Repeat #1.
Riff#8.Heavy. Fast palm mute.Down stroking.
|----------------------------------------------|
|----------------------------------------------|
|----------------------------------------------|
|555555555555555555-87-444444444444444-4--4--4-|
|333333333333333333-65-222222222222222-2--2--2-|
|333333333333333333-65-222222222222222-2--2--2-|
   ...  ...  ...         ...  ...  ... .  .  .

Riff#9. Slow, Heavy.
|--------------------------------------|
|--------------------------------------|
|--------------------------------------|
|4------7--8----4------7--8-7\8/7\-8-7-|
|2------5--6----2------5--6-5\6/5\-6-5-|
|2------5--6----2------5--6-5\6/5\-6-5-|
                                   . .
Riff#10. Heavy.Slighty fast tempo..Down stroking.
|---------------------------|   Repeat Riff#9,10,9,10
|---------------------------|
|---------------------------|
|4-444444444444-7----8------|
|2-222222222222-5----6------|
|2-222222222222-5----6------|
   ............
End....


Dimmu Borgir albums
2003 Death Cult Armageddon
2001 Puritanical Euphoric Misanthropia
1999 Devil's Path/In the Shades of Life
1999 Spiritual Black Dimensions
1998 Godless Savage Garden
1997 Enthrone Darkness Triumphant
1994 For All Tid
Puritanical Euphoric Misanthropia tabs
02Blessings upon the Throne of Tyranny tabbass tab
03Kings of the Carnival Creation tabbass tab
04Hybrid Stigmata-The Apostasy tabbass tab
05Architecture of a Genocidal Nature tabbass tab
06Puritania tabbass tab
07Indoctrination tabbass tab
08The Maelstrom Mephisto tabbass tab
09Absolute Sole Right tabbass tab
10Sympozium tabbass tab
11Perfection or Vanity tabbass tab

 

1