Search tabs:
Browse artists: 0-9 | A | B | C | D | E | F | G | H | I | J | K | L | M | N | O | P | Q | R | S | T | U | V | W | X | Y | Z
/ Dope / Group Therapy (2003) / Now Is the Time guitar tab

Tuning: Drop A (A E A D F# B)
there's a lot of fills in that song that i haven't write cause
they are easy to find from the tabs and listening... i'm not 100% sure for this one

Verse
B |----------------------------------------------|------|
F#|----------------------------------------------|------|
D |----------------------------------------------|------|
A |-33-3-2--0-2--2--0-2--33-3-2--0-2--2--0-2-0-2-|-33-3-|
E |-33-3-2--0-2--2--0-2--33-3-2--0-2--2--0-2-0-2-|-33-3-|
A |-33-3-2--0-2--2--0-2--33-3-2--0-2--2--0-2-0-2-|-33-3-|
PM  -- -                 -- -                     -- -

Chorus
B |---------|-----------|
F#|---------|-----------|
D |---------|-----------|
A |-2-0-2-2-|-2-0-2-6-3-|
E |-2-0-2-2-|-2-0-2-6-3-|
A |-2-0-2-2-|-2-0-2-6-3-|

Interlude
B |----------------------------------------|
F#|----------------------------------------|
D |----------------------------------------|
A |-2--2--2--2-0-2-6-3-2--2--2--2-0-2-33-3-|
E |-2--2--2--2-0-2-6-3-2--2--2--2-0-2-33-3-|
A |-2--2--2--2-0-2-6-3-2--2--2--2-0-2-33-3-|
PM                                    -- -

Song Structure
Verse
Chorus
Verse
Chorus
Verse
Chorus
Interlude
Chorus
Verse
Chorus


Dope albums
2005 American Apathy
2003 Group Therapy
2001 Life
1999 Felons and Revolutionaries
Group Therapy tabs
01Falling Away tabbass tab
02Bitch tabbass tab
03I Am tabbass tab
04Motivation tabbass tab
05Sing tabbass tab
06Now Is the Time tabbass tab
07Paranoia tabbass tab
08Bring It On tabbass tab
10Today Is the Day tabbass tab
11Burn tabbass tab
12Easier tabbass tab

 

1