Search tabs:
Browse artists: 0-9 | A | B | C | D | E | F | G | H | I | J | K | L | M | N | O | P | Q | R | S | T | U | V | W | X | Y | Z
/ Dope / Life (1987) / Thanks for Nothing guitar tab

Dope - Thanks for Nothing
Tabbed by Michael Johnson ( (☼) )

I can't believe no one had tabbed this out it is an awsome song.
sorry about it not being in order but most of it is there. I'd appreciate the feedback
e----------------------------------------------------
B----------------------------------------------------
G ---------14---14----- 9---9----7--7-9--7
D---------- x----x -----x-- x-- -x--x-x--x
A----------12 --12 -----7---7----5  5 7  5
D----------------------------------------------------

Background^
e--------------------------------------------
B---------------------------------------------
G-----------------------------------------------
D----------------------------------------------
A----0-0-0-0----3-3-3-3----5-5-5-5-3-5-5-5
D----0-0-0-0----3-3-3-3----5-5-5-5-3-5-5-5

Different part
harmonic slide from 5 on low D to 3 and back (kinda like suite-pee)



                           Most of song
e
B
G
D                                         later replace un p.m. 0 with 3
A----000000000----0---|--3
D----000000000----0---|--3
p.m. ?????


yet another part  (weird effect)
e------------------------------------
B--------------------------------------
G--------------------------------------
D--------------------------------------
A---------8-10-8-5--12-10-7-10-7-5
D----0--------------------------


Dope albums
2005 American Apathy
2003 Group Therapy
2001 Life
1999 Felons and Revolutionaries
Life tabs
01Mideast Vacation tabbass tab
02Long Walk Home tabbass tab
03Around the World tabbass tab
04Inca Queen tabbass tab
05Too Lonely tabbass tab
07Cryin' Eyes tabbass tab
08When Your Lonely Heart Breaks tabbass tab
09We Never Danced tabbass tab

 

1