Search tabs:
Browse artists: 0-9 | A | B | C | D | E | F | G | H | I | J | K | L | M | N | O | P | Q | R | S | T | U | V | W | X | Y | Z
/ Edge Of Sanity / Purgatory Afterglow (1994) / Of Darksome Origin guitar tab

Edge of Sanity "Of Darksome Origin"
Purgatory Afterglow
tabbed by: Drew Schinzel 
April 2000

Legend:
-------
h hammer on
\ slide down

Standard tuning.
As usual, timing and structure aren't notated so pay attention to the
CD.

 riff 1
|----------------------------------------------|
|----------------------------------------------|
|----------------------------------------------|
|-4--4--4-4-4--4--4--4--4-4-4----4"-3"--4"3"---|
|-2--2--2-2-2--2--2--2--2-2-2------------------|
|-2--2--2-2-2--2--2--2--2-2-2------------------|
                             The above notes are tremoloed.. listen for
timing
 riff 2
|------------------------------------------------|
|------------------------------------------------|
|-----4/7--------------------4/7-----------------|
|---------6--5--4----------------6--5--6--5------|
|-----------------6-5-4--------------------------|
|--7---------------------7-----------------------|

|------------------------------------------------|
|-----------6---------------------6--------------|
|-----6-7-6---7--6/7-6------6-7-6---7--6/7-6-----|
|--4---------------------4-----------------------|
|------------------------------------------------|
|------------------------------------------------|

 riff 3  Before this is played slowly, play the fast tremolo-picked version
|------------------------------------------|
|------------------------------------------|
|--4---------------------------------------|
|-----4\-0--3----3\---0--2--4--------------|
|-------------------------------1--2--4----|
|------------------------------------------|

 riff 4
|----------------------------------------------------|
|----------------------------------------------------|
|----------------------------------------------------|
|--0-000--4-444--0-000-4-444--0-000-4-444--0-000-4---|
|--0-000--2-222--0-000-2-222--0-000-2-222--0-000-2---|
|---------2-222--------2-222--------2-222--------2---|

 riff 5
|-------------------------------------------------------|
|-------------------------------------------------------|
|--------------------------------------3-333--6-666-----|
|-0-000-0-000-0-2-4-5-4-2--4-444-4-444------------------|
|-------------------------------------------------------|
|-------------------------------------------------------|

|------------------------------------------------------|
|------------------------------------------------------|
|------------------------------------------------------|
|-0-000-0-000-0-2-4-5-4-2--4-444-4-444--2-222--2-222---|
|------------------------------------------------------|
|------------------------------------------------------|

 riff 6
|---------------------------------------|-----------------------------------|
|---------------------------------------|-------------------3--2---3-2------|
|--------33333333-----------------------|--------33333333-------------------|
|----4-0---------------4-0--3---2-------|----4-0------------------------4---|
|-2----------------2----------4---3-----|-2---------------------------------|
|---------------------------------------|-----------------------------------|

 riff 7
|-------------------------------------|---------------------------------------|
|-------------------------------------|---------------------------------------|
|-------7p6-----6-4------4-3-----3h4--|-------7-6-----6-4------4-3-------4----|
|----4--------------------------------|----4----------------------------------|
|------------7--------5--------4------|------------7--------5--------4--------|
|-7-----------------------------------|-7-------------------------------------|


For the part right before riff 8, play riff 4 twice normally, then play it
playing each chord three times instead of once with the triplet,
then play just each chord once.

riff 8
|-----------------------------------------------------------|
|-----------------------------------------------------------|
|-----------------------------------------------------------|
|-4-4-4--3-3-3--4-4-4--3-3-3--4-4-4--3-3-3--7-7-7--6-6-6----|
|-4-4-4--3-3-3--4-4-4--3-3-3--4-4-4--3-3-3--7-7-7--6-6-6----|
|-2-2-2--1-1-1--2-2-2--1-1-1--2-2-2--1-1-1--5-5-5--4-4-4----|


Edge Of Sanity albums
1997 Infernal
1994 Purgatory Afterglow
1993 The Spectral Sorrows
1992 Unorthodox
Purgatory Afterglow tabs
01Twilight tabbass tab
02Of Darksome Origin tabbass tab
05Black Tears tabbass tab

 

1