Search tabs:
Browse artists: 0-9 | A | B | C | D | E | F | G | H | I | J | K | L | M | N | O | P | Q | R | S | T | U | V | W | X | Y | Z
/ Everlast / Whitey Ford Sings the Blues (1998) / Hot To Death guitar tab

Artist: Everlast
Album: Whitey Ford Sings the Blues

Tabbed By Drakez ( vlad@emu-efnet.com )
Special Thanks to Tom Woodrum

Song: Hot to Death


Intro(x4):
e|-----------------------------------------------|
B|-----------------------------------------------|
G|-----------------------------------------------|
D|-----------------------------------------------|
A|-0-0--0-9--0--8--0--7--0-0--8--0--7--0--6-6h/5-|
E|-0-0--0-7--0--6--0--5--0-0--6--0--5--0--4-4h/3-|

Riff 1:
e|----------------------------------------|Pause 
B|----------------------------------------|before
G|----------------------------------------|repeating.
D|----------------------------------------|
A|----------------------------------------|
E|-0-0-7p-6p-5p-4h(p)-0-0--6p-5p-4p-3h(p)-|

Riff 2(Same as Riff 3 and intro excpet play slower(x2)):
e|-----------------------------------------------|
B|-----------------------------------------------|
G|-----------------------------------------------|
D|-----------------------------------------------|
A|-0-0--0-9--0--8--0--7--0-0--8--0--7--0--6-6h/5-|
E|-0-0--0-7--0--6--0--5--0-0--6--0--5--0--4-4h/3-|

Riff 3(same as Intro, Riff 2):
e|-----------------------------------------------|
B|-----------------------------------------------|
G|-----------------------------------------------|
D|-----------------------------------------------|
A|-0-0--0-9--0--8--0--7--0-0--8--0--7--0--6-6h/5-|
E|-0-0--0-7--0--6--0--5--0-0--6--0--5--0--4-4h/3-|

Riff 4(Play Slower and slower till song ends):
e|----------------------------------------|No Pause 
B|----------------------------------------|before
G|----------------------------------------|repeating.
D|----------------------------------------|
A|----------------------------------------|
E|-0-0-7p-6p-5p-4h(p)-0-0--6p-5p-4p-3h(p)-|



Authors Notes:
IMPORTANT STUFF READ IT!
ONLY FOR HOT TO DEATH! h = pause for x amount of time(hold)

o
  = Repeats
o

> = Strum up
X = Mute
/ = Slide Up
\ = Slide Down
p = pull of
h = Hammer on(not for Hot to death)
~ = bend up down (fast till fade out)

 Dsus4       Dm        Fmaj7        Em/D        Esus4/D
xxo        xxo        xx   o      xxo          xxo
======     ======     ======      ======       ======
||||||     |||||O     ||||O|      ||||||       ||||||
|||O||     |||O||     |||O||      ||||||       ||||||
||||OO     ||||O|     ||O|||      |||||O       ||||||
||||||     ||||||     ||||||      |||O||       |||O||

  G         
  ooo  
======     
||||||     
|O||||    
O||||O 

  E        G       C        A
o   oo
======   ======  ======   ======
|||O||   ||||||  ||||||   ||||||
|OO|||   ||||||  ||||||   ||||||
||||||   OOOOOO  OOOOOO   ||||||
         |||O||  ||||||   ||||||
         |OO|||  ||OOO|   OOOOOO
                          |||O||
                          |OO|||


  G7       D7       F

======   ======   ======
||||||   ||||||   OOOOOO
||||||   ||||||   |||O||
OOOOOO   ||||||   |OO|||
|||O||   ||||||
|O||||   OOOOOO
         ||||||
         ||O|O|


Everlast albums
2004 White Trash Beautiful
2000 Eat at Whitey's
1998 Whitey Ford Sings the Blues
Whitey Ford Sings the Blues tabs
03Ends tabbass tab
04What It's Like tabbass tab
05Get Down tabbass tab
08Hot To Death tabbass tab
12Today (Watch Me Shine) tabbass tab
16The Letter tabbass tab
177 Years tabbass tab

 

1