Search tabs:
Browse artists: 0-9 | A | B | C | D | E | F | G | H | I | J | K | L | M | N | O | P | Q | R | S | T | U | V | W | X | Y | Z
/ Foo Fighters / In Your Honor (2005) / Another Round guitar tab

BAND: FOO FIGHTERS
SONG: ANOTHER ROUND
ALBUM: IN YOUR HONOR (ACOUSTIC SIDE)
TUNING: STANDARD E

CHORDS USED
       G       Dm    Am    C      D       Em   A	
E|-----3-------1-----0-----0 (3)--2-------0----0----------------------------------]
B|-----3-------3-----1-----1------3-------0----2----------------------------------]
G|-------------2-----2-----0------2-------0----2----------------------------------]
D|-------------------2-----2--------------2----2----------------------------------]
A|-----2-------------------3--------------2---------------------------------------]
E|-----3--------------------------------------------------------------------------]


G             Dm
When she goes storming out
Am       C
I run for cover
G            Dm
Rolling like thunder clouds,
Am         C
Hanging above her
G               Dm
Ringing the witching hour
Am            C
Spells that im singing
G                   Dm
Rain come and drown me out
Am      C      D
Sinking deep below
G                A         Em
Can you go another round
                        C
I will follow you down and out
G         A                Em
Lets go another round
                  C
I will follow you down and
G                   Dm
We could just lay around
Am           C
Stare at the ceiling
G              Dm
Want to forget about
Am          C
One for the Feeling
G                Dm
Room full of Photographs
Am           C
Box full of letters
G           Dm
Come on make it last
Am              C                  D
Nothing else matters right now


CHORUS
PLAY VERSE DURING HARMONICA SOLO
.

	
HARMONICA SOLO TRANSLATED TO GUITAR (IT SOUNDS A LOT LIKE IT) ONLY ON HIGH E AND B STRINGS


E|--10-12h10--15-13-12-10-8---------10h8h10/8-15-13-12-10-8-10-15-13-12-10/8/10/8/10-]
B|-------------------------10 11b 8--------------------------------------------------]

E|-15-13-12-10-8-----------10-13-10-13-10-13------------------------12-10------------]
B|---------------11b-8-6/8--------------------12-12-10/8-10-8--8-10------------------]

h-hammer
b-bend

CHORUS
Ending on the uhhhs G A Em C

NOTES: When he plays the C chord most of the time you hear the pinky
added on the 3rd fret on the high E string


Tabbed By: Chris Cifelli email me with suggestions or corrections ckcifelii33@comcast.net


Foo Fighters albums
2005 In Your Honor
2002 One by One
1999 There Is Nothing Left To Lose
1997 The Colour & The Shape
1995 Foo Fighters
In Your Honor tabs
01In Your Honor tabbass tab
02No Way Back tabbass tab
03Best of You tabbass tab
04DOA tabbass tab
05Hell tabbass tab
06The Last Song tabbass tab
07Free Me tabbass tab
08Resolve tabbass tab
09The Deepest Blues Are Black tabbass tab
10End Over End tabbass tab
12Still tabbass tab
13What If I Do? tabbass tab
14Miracle tabbass tab
15Another Round tabbass tab
16Friend of a Friend tabbass tab
17Over and Out tabbass tab
18On the Mend tabbass tab
19Virginia Moon tabbass tab
20Cold Day in the Sun tabbass tab
21Razor tabbass tab

 

1