Search tabs:
Browse artists: 0-9 | A | B | C | D | E | F | G | H | I | J | K | L | M | N | O | P | Q | R | S | T | U | V | W | X | Y | Z
/ Foo Fighters / One by One (2002) / All My Life guitar tab

My first geetar tab. This is how i play it, if it is 100% woohoo, if its not then i prefer playing it this way

Standard tuning

Intro

*=Once, at start
!=strumming up suggested
i=strumming down suggested
^=Pick suggested
#=rest
x=Mute on frets

Intro part 1

palm muted
E|---------------------------|
B|---------------------------|
G|---------------------------|
D|--5*-#-5-5-5-#-5-5-5-#-5-5-5--|
A|--5*-#-5-5-5-#-5-5-5-#-5-5-5--|
E|--3*-#-3-3-3-#-3-3-3-#-3-3-3--|
    i   i i i  i i i  i i i

Once the vocals come in the timing changes a tiny bit but its the same general palm mute strumming. Play one of these non palm muted before going to second part of the intro


intro part 2

Guitar 1
E|---------------------------------------------------------------|
B|---------------------------------------------------------------|
G|------------------------3---3----------------------------6---6-|
D|-5-5-5-0-5-#-0-5-5-0-5--3---3-#-5-5-5-0-5-5-#-0-5-5-0-5--6---6-|
A|-5-5-5-0-5-#-0-5-5-0-5--1---1-#-5-5-5-0-5-5-#-0-5-5-0-5--4---4-|
E|-3-3-3-0-3-#-0-3-3-0-3--------#-3-3-3-0-3-3-#-0-3-3-0-3--------|
   i ! i ! i   ! i ! i !  !   !   i ! i ! i !   ! i ! i !  !   !

Guitar 2
Guitar 2
E|------------------------------------------------------------|
B|------------------------------------------------------------|
G|-------------------------4--4--------------------------6--6-|
D|-3-3-3-3-3-#--3-3-3-3-3--4--4--3-3-3-3-3 #--3-3-3-3-3--6--6-|
A|-1-1-1-1-1-#--1-1-1-1-1--2--2--1-1-1-1-1 #--1-1-1-1-1--4--4-|
E|------------------------------------------------------------|
   i i i i i    i i i i i  i  i  i i i i i    i i i i i  i  i

Verse

Guitar 1
E|-----------------------------------------------------------------------|
B|------------------------------------------------------------------|
G|-------------------------3--3--------------------------------6--6-|
D|-------------------------3--3--------------------------------6--6-|
A|-------------------------1--1--------------------------------4--4-|
E|------------------------------------------------------------------|
                           i  i                                i  i
                                    play at same time
                                     as guitar 2
Guitar 2
E|----------------------------------------------------------------|
B|----------------------------------------------------------------|
G|----3-----3--------3-----3---3--3---------3------3----3-----3---6--6-|
D|-----------------------------3--3-------------------------------6--6-|
A|-----------------------------1--1-------------------------------4--4-|
E|-3----3-3---3----3---3-3---------------3----3-3-----3---3-3----------|
   ^  ^ ^ ^ ^ ^    ^ ^ ^ ^ ^   i  i      ^  ^ ^ ^  ^  ^ ^ ^ ^ ^   i  i

****Chorus****

both guitars

E|-x-x-x-x-x-x-x-x-x-x-x-x-x-x-x-x-x-x-x-x-x-x-x-x-
B|-4-4-4-4-4-4-4-4-4-4-4-4-3-3-3-3-3-3-3-3-3-3-3-3-
G|-0-0-0-0-0-0-0-0-0-0-0-0-0-0-0-0-0-0-0-0-0-0-0-0-
D|-5-5-5-5-5-5-5-5-5-5-5-5-5-5-5-5-5-5-5-5-5-5-5-5-
A|-6-6-6-6-6-6-6-6-6-6-6-6-5-5-5-5-5-5-5-5-5-5-5-5-
E|-x-x-x-x-x-x-x-x-x-x-x-x-x-x-x-x-x-x-x-x-x-x-x-x-
   i ! i ! i ! i ! i ! i ! i ! i ! i ! i ! i ! i !

E|-0-0-0-0-0-0-1-1-1-1-1-1-6-6-6-6-6-6-6-6|
B|-1-1-1-1-1-1-1-1-1-1-1-1-6-6-6-6-6-6-6-6|
G|-0-0-0-0-0-0-3-3-3-3-3-3-6-6-6-6-6-6-6-6|
D|-2-2-2-2-2-2-3-3-3-3-3-3-8-8-8-8-8-8-8-8|
A|-2-2-2-2-2-2-3-3-3-3-3-3-8-8-8-8-8-8-8-8|
E|-0-0-0-0-0-0-3-3-3-3-3-3-8-8-8-8-8-8-8-8|
   i ! i ! i ! i ! i ! i ! i ! i ! i ! i !

Instrumental interlude part

Guitar 1

Intro part 1 again

Guitar 2

Play this were guitar 1 rests
E|-----------------|
B|-----------------|
G|-5---------------|
D|-----------------|
A|-----------------|
E|-----------------|
    ^
Then Both guitars got

E|-66666666666666h8-6h8|
B|---------------------|
G|---------------------|
D|---------------------|
A|---------------------|
E|---------------------|
   ^^^^^^^^^^^^^^ ^ ^ ^


Outro Both Guitars: Play intro part one with the palm muting



I think thats good

Lyrics

All my life I've been searching for something
Something never comes, never leads to nothing
Nothing satisfies but I'm getting close
Closer to the prize at the end of the rope
All night long I dream of the day
When it comes around, then it's taken away
Leaves me with the feeling that I feel the most
Feel it come to life when I see your ghost

Come down, don't you resist
You have such a delicate wrist
And if I give it a twist
Something to hold when I lose my breath
Will I find something in that
So give me just what I need
Another reason to bleed
One by one hidden up my sleeve
One by one hidden up my sleeve

Hey, don't let it go to waste
I love it but I hate the taste
Weight keeping me down
Hey, don't let it go to waste
I love it but I hate the taste
Weight keeping me down

Will I find a believer
Another one who believes
Another one to deceive
Over and over, down on my knees
If I get any closer
And if you open up wide
And if you let me inside
On and on, I've got nothing to hide
On and on, I've got nothing to hide

Hey don't let it go to waste
I love it but I hate the taste
Weight keeping me down
Hey don't let it go to waste
I love it but I hate the taste
Weight keeping me down

All my life I've been searching for something
Something never comes, never leads to nothing
Nothing satisfies but I'm getting close
Closer to the prize at the end of the rope
All night long I dream of the day
When it comes around, then it's taken away
Leaves me with the feeling that I feel the most
Feel it come to life when I see your ghost

And I'm done, done, on to the next one
Done, done, and I'm on to the next one
Done, done, and I'm on to the next one
Done, done, and I'm on to the next one
Done, done, and I'm on to the next one
Done, done, and I'm on to the next one
Done, done, and I'm on to the next one
Done, I'm done, and I'm on to the next

Done, done, on to the next one
Done, I'm done, and I'm on to the next one
Done, done, on to the next one
Done, I'm done, and I'm on to the next

Hey, don't let it go to waste
I love it but I hate the taste
Weight keeping me down
Hey, don't let it go to waste
I love it but I hate the taste
Weight keeping me down

Done, done, on to the next one
Done, I'm done, and I'm on to the next

=======
=VladX=
=======


Foo Fighters albums
2005 In Your Honor
2002 One by One
1999 There Is Nothing Left To Lose
1997 The Colour & The Shape
1995 Foo Fighters
One by One tabs
01All My Life tabbass tab
02Low tabbass tab
03Have It All tabbass tab
04Times Like These tabbass tab
05Disenchanted Lullaby tabbass tab
06Tired of You tabbass tab
07Halo tabbass tab
08Lonely as You tabbass tab
09Overdrive tabbass tab
10Burn Away tabbass tab
11Come Back tabbass tab

 

1