Search tabs:
Browse artists: 0-9 | A | B | C | D | E | F | G | H | I | J | K | L | M | N | O | P | Q | R | S | T | U | V | W | X | Y | Z
/ Foo Fighters / One by One (2002) / Lonely as You guitar tab

By :  Chrisdude0405
Artist : Foo Fighters
Song : Lonley as you
Album : One by one
Tuning: Standard

   This is a brilliat song off the Foo fighters new album 1x1.
 I saw the foos earlier this year on Nov 16 "02 in Manchester
and they were so good! They played this song on the encore and it
was definately one of the highlighs of the evening.
 in between 2 songs, this guy called Andy, ran on stage
and hugged Dave! A security guard went to take Andy
away but Dave stopped him and let him sit on the drums for
 the next song, Aurora! Then, if that wasnt enough,
Dave sang this song directley to Andy! It was so funny!
People who went that night will know what I 'm talking about!
Dave was on top form that night! And if your reading
this Andy, you do have the biggest balls in Manchester!
This took me quite a while so please rate this tab.

^ = Bend
x = Muted string
* = Harmonic
  Intro          Clean, strum slowly
  ( on the first chord, you dont have to play the 1 on the A string)
  |----------------------------------------------------------2--|
  |-------------2--------------------------------------------3--|
  |--3----------3-----1---3--4----3---------1--3--3--- #4----4--|
  |--4----------3-----2-----------4---4-----------3-----4----4--|
  |--1----------1-----2-----------1---1-----------1-----2----2--|
  |--2----------------------------2---2-------------------------|
      What would I do.....                             second time do not play #

  Verse
  |---------------------------------------------------------------------|
  |---------------------------------------------------------------------|
  |---------------------------------------------------------------------|
  |--4-4-4-4-4-4-4-4--8-8-8-8-8-8-8-8--9-9-9-9-9-9-9-9--8-8-8-8-8-8-8-8-|
  |--4-4-4-4-4-4-4-4--8-8-8-8-8-8-8-8--9-9-9-9-9-9-9-9--8-8-8-8-8-8-8-8-|
  |--2-2-2-2-2-2-2-2--6-6-6-6-6-6-6-6--7-7-7-7-7-7-7-7--6-6-6-6-6-6-6-6-|
  ( P.M...........................................................P.M..)
     Wake up my.......

  |-----------------------------------------------------------------------|
  |-----------------------------------------------------------------------|
  |-----------------------------------------------------------------------|
  |--7-7-7-7-7--9-9-9--4-4-4-4-4-4-4-4---6-6-6-6-6-6-6-6--5-5-5-5-5-5-5-5-|
  |--7-7-7-7-7--9-9-9--4-4-4-4-4-4-4-4---6-6-6-6-6-6-6-6--5-5-5-5-5-5-5-5-|
  |--5-5-5-5-5--7-7-7--2-2-2-2-2-2-2-2---4-4-4-4-4-4-4-4--3-3-3-3-3-3-3-3-|
  ( P.M.............................................................P.M..)

  |---------------------------------------------------------------------|
  |---------------------------------------------------------------------|
  |---------------------------------------------------------------------|
  |--4-4-4-4-4-4-4-4--8-8-8-8-8-8-8-8--9-9-9-9-9-9-9-9--8-8-8-8-8-8-8-8-|
  |--4-4-4-4-4-4-4-4--8-8-8-8-8-8-8-8--9-9-9-9-9-9-9-9--8-8-8-8-8-8-8-8-|
  |--2-2-2-2-2-2-2-2--6-6-6-6-6-6-6-6--7-7-7-7-7-7-7-7--6-6-6-6-6-6-6-6-|
    ( P.M...........................................................P.M)
     Spear all the..........
  |--------------------------------------------------------------------------|
  |--------------------------------------------------------------------------|
  |--------------------------------------------------------------------------|
  |--7-7-7-7-7--9-9-9--4-4-4-4-4-4-4-4--9-9-9-9-9-9-9-9-9-9-9-9-9-9-9----9/--|
  |--7-7-7-7-7--9-9-9--4-4-4-4-4-4-4-4--9-9-9-9-9-9-9-9-9-9-9-9-9-9-9----9/--|
  |--5-5-5-5-5--7-7-7--2-2-2-2-2-2-2-2--7-7-7-7-7-7-7-7-7-7-7-7-7-7-7----7/--|
   ( P.M..........................................................P.M)

  |----------------------------------------------------------------------|
  |----------------------------------------------------------------------|
  |----------------------------------------------------------------------|
  |--4-4-4-4-4-4-4-4--8-8-8-8-8-8-8-8--9-9-9-9-9-9-9-9--8-8-8-8-8-8-8-8--|
  |--4-4-4-4-4-4-4-4--8-8-8-8-8-8-8-8--9-9-9-9-9-9-9-9--8-8-8-8-8-8-8-8--|
  |--2-2-2-2-2-2-2-2--6-6-6-6-6-6-6-6--7-7-7-7-7-7-7-7--6-6-6-6-6-6-6-6--|
    ( P.M...........................................................P.M)

   Heavy distortion
  |--------------------------------------|
  |--------------------------------------|
  |--------------------------------------|
  |--7-7-7-7--9/--4----------------------| Repeat 3 times
  |--7-7-7-7--9/--4----------------------|
  |--5-5-5-5--7/--2--2*--2*--14/////////-|
    Down and out......

 Pre- chorus    ( Guitar 1)
  |----------------------------------------------------------------------|
  |----------------------------------------------------------------------|
  |----------------------------------------------------------------------|
  |--9-9-9-9-9-9-9-9--7-7-7-7-7-7-7-7--6-6-6-6-6-6-6-6--5-5-5-5-5-5-5-5--|
  |--9-9-9-9-9-9-9-9--7-7-7-7-7-7-7-7--6-6-6-6-6-6-6-6--5-5-5-5-5-5-5-5--|
  |--7-7-7-7-7-7-7-7--5-5-5-5-5-5-5-5--4-4-4-4-4-4-4-4--3-3-3-3-3-3-3-3--|

Pre-chorus  (Guitar 2)
  |-------------------------------------------|
  |-------------------------------------------|
  |--8--11p8--6----11p8--5--11p8--4-----------|
  |-------------------------------------------|
  |-------------------------------------------|
  |-------------------------------------------|

Chorus
  |----------------------------------------|
  |----------------------------------------|
  |----------------------------------------|
  |--11- 11-11--10-10-10--9-9-9--8-8-8--7--|
  |--11- 11-11--10-10-10--9-9-9--8-8-8--7--|
  |---9---9--9---8--8--8--7-7-7--6-6-6--5--|
      One more time for the last time!
  |----------------------------------------|
  |----------------------------------------|
  |--7-7-7---------9-9-9-------------------|
  |--7-7-7--7-7-7--9-9-9--9-9-9------------|   Repeat
  |--5-5-5--7-7-7--7-7-7--9-9-9------------|
  |--5-5-5--5-5-5--7-7-7--7-7-7----12^-----|
ohhhhhhhhhhhhhhhhhhh

 Solo                     First part
  |-------------------------------------------------------|
  |-------------------------------------------------------|
  |--11-11-11-11-11---10- 10--10--10--10--9--9--9--9---9--|
  |--x--x--x--x---x----x---x---x---x---x--x--x--x--x---x--|
  |--9--9--9--9---9----8---8---8---8---8--7--7 -7--7---7--|
  |-------------------------------------------------------|

  |----------------------|
  |----------------------|
  |--8-8-8-8-8--7-7-7-9--|
  |--x-x-x-x-x--x-x-x-x--|
  |--6-6-6-6-6--5-5-5-7--|
  |----------------------|

  |----------------------------------------------|
  |----------------------------------------------|
  |--6----6---8-8-8-8-8-8-8-8--7-7-7-7--9-9-9-9--|
  |--x----x---x-x-x-x-x-x-x-x--x-x-x-x--x-x-x-x--|
  |--4----4---6-6-6-6-6-6-6-6--5-5-5-5--7-7-7-7--|
  |----------------------------------------------|
     Second part
  |------------------------------------------------------------------|
  |------------------------------------------------------------------|
  |--15-15-15-15-15--15-15-15-15-15--13-13-13-13-13--11-11-11-11-11--|
  |--x--x--x--x--x---x---x---x--x--x---x---x--x--x---x--x---x--x--x--|
  |--13-13-13-13-13--13-13-13-13-13--11-11-11-11-11--9---9--9--9--9--|
  |------------------------------------------------------------------|

  |---------------------------------------------------------|
  |---------------------------------------------------------|
  |--14-14-14--13--11-11--8-8-8-8-8-8-8-8--7-7-7-7--9-9-9-9-|
  |--x--x---x--x----x--x--x-x-x-x-x-x-x-x--x-x-x-x--x-x-x-x-|
  |--12-12-12--11---9--9--6-6-6-6-6-6-6-6--5-5-5-5--7-7-7-7-|
  |---------------------------------------------------------|
           Heavy distortion
  |---------------------------------------------------------------------|
  |---------------------------------------------------------------------|
  |---------------------------------------------------------------------|
  |-4-4-4-4-4-4-4-4--8-8-8-8-8-8-8-8--9-9-9-9-9-9-9-9--8-8-8-8-8-8-8-8--|
  |-4-4-4-4-4-4-4-4--8-8-8-8-8-8-8-8--9-9-9-9-9-9-9-9--8-8-8-8-8-8-8-8--|
  |-2-2-2-2-2-2-2-2--6-6-6-6-6-6-6-6--7-7-7-7-7-7-7-7--6-6-6-6-6-6-6-6--|
    Every now and then.....
  Pre- chorus
  Chorus

  Outro     Guitar 1 plays chorus
    Guitar 2
  |--------------------------------------------------------------------|
  |--------------------------------------------------------------------|
  |--11^-11^--11^--11^--11--11^--11^--11^--9--12-12-12-----------------|
  |--------------------------------------------------------------------|
  |--------------------------------------------------------------------|
  |--------------------------------------------------------------------|

  |---------------------------------------------------------------------------|
  |---------------------------------------------------------------------------|
  |--11^--11^--11^--11^--11--11^--11^--11^--9-16--16--16--16------------------|
  |---------------------------------------------------------------------------|
  |---------------------------------------------------------------------------|
  |---------------------------------------------------------------------------|

  |-----------------------------------------------------------------|
  |-----------------------------------------------------------------|
  |--15^--15^--15^--15^--15--15^--15^--15^---14^--16^---------------|
  |-----------------------------------------------------------------|  repeat
  |-----------------------------------------------------------------|
  |-----------------------------------------------------------------|

  End on
  Guitar 2          Guitar 1
|--------|          |-----------|
|--------|          |-----------|
|---15---|          |-----------|
|--------|          |------4----|
|--------|          |------4----|
|--------|          |------2----|

Thats it. ENJOY!
If you need to E - mail me for corrections, Lynny082@aol.com


Foo Fighters albums
2005 In Your Honor
2002 One by One
1999 There Is Nothing Left To Lose
1997 The Colour & The Shape
1995 Foo Fighters
One by One tabs
01All My Life tabbass tab
02Low tabbass tab
03Have It All tabbass tab
04Times Like These tabbass tab
05Disenchanted Lullaby tabbass tab
06Tired of You tabbass tab
07Halo tabbass tab
08Lonely as You tabbass tab
09Overdrive tabbass tab
10Burn Away tabbass tab
11Come Back tabbass tab

 

1