Search tabs:
Browse artists: 0-9 | A | B | C | D | E | F | G | H | I | J | K | L | M | N | O | P | Q | R | S | T | U | V | W | X | Y | Z
/ Foo Fighters / One by One (2002) / Times Like These guitar tab

artist- foo fighters	
album - one by one
song  - times like these
transcribed by joel hewitt	


standard tuning - E,A,D,G,B,e

x = mute
/ = slide
h = hammer on

intro;

-------5------
-------x------
-------5------
-------0------ keep hammering on to get rythm for this bit listen to the cd.
-------0h5----
-------x------

riff guitar 2;

-----------------------------------------------------------
-----------------------------------------------------------
------------------12--11----------------12--11-------------
-------12--10--0----------0--12--10--0---------------------
----0-------------------------------------------12--10--0--
----------------------------------------------------------- repeat

play over riff guitar 1;

------------------------------
------------------------------
-----7----5----0--------------
-----7----5----0--------------
-----5----3----2--------------
------------------------------

fill;

-------5------
-------x------
-------5------
-------0------
-------0h5----
-------x------

vesre;

----2-----3-----------3---------5-------------------
----3-----1-----1-----1---------x-------------------
----2-----0-----2-----0----0----5-------------------
----------2-----2-----2----2------------------------
----------------------3----2------------------------
----------------------------------------------------repeat

chorus;

----3---------2----
----1---------3----
----0----0----2----
----2----2---------
----3----2---------
------------------- repeat

vesre;

----2-----3-----------3---------5-------------------
----3-----1-----1-----1---------x-------------------
----2-----0-----2-----0----0----5-------------------
----------2-----2-----2----2------------------------
----------------------3----2------------------------
----------------------------------------------------repeat

chorus;

----3---------2----
----1---------3----
----0----0----2----
----2----2---------
----3----2---------
------------------- repeat

bridge guitar 2;

-------------------------------------------------------------
-------------------------------------------------------------
------------------12--11----------------12--11---------------
-------12--10--0----------0--12--10--0-----------------------
----0-------------------------------------------12--10--12\\--
------------------------------------------------------------- repeat

chorus;

----3---------2----
----1---------3----
----0----0----2----
----2----2---------
----3----2---------
------------------- repeat

outro;

----3----3-----------0--------2----2-----
----1------1-----------0------3------3---
----0--------0---0-------0----2--------2-
----2------------2-----------------------
----3------------2-----------------------
-----------------------------------------

end chord;

-3-
-1-
-0-
-2-
-3-
---

this is one of the best songs off the album its great,
if you have any problems with this tab then e-mail me

mike_einziger@hotmail.com
enjoy
joel hewitt


Foo Fighters albums
2005 In Your Honor
2002 One by One
1999 There Is Nothing Left To Lose
1997 The Colour & The Shape
1995 Foo Fighters
One by One tabs
01All My Life tabbass tab
02Low tabbass tab
03Have It All tabbass tab
04Times Like These tabbass tab
05Disenchanted Lullaby tabbass tab
06Tired of You tabbass tab
07Halo tabbass tab
08Lonely as You tabbass tab
09Overdrive tabbass tab
10Burn Away tabbass tab
11Come Back tabbass tab

 

1