Search tabs:
Browse artists: 0-9 | A | B | C | D | E | F | G | H | I | J | K | L | M | N | O | P | Q | R | S | T | U | V | W | X | Y | Z
/ Foo Fighters / There Is Nothing Left To Lose (1999) / Next Year guitar tab

Foo Fighters - Next Year 
(Normal Tuning)


Main riff
  G		Dadd4/F#			 Cadd9
e|10--10--10-----10--10--10--10--10--10--x--x----8---8--8---8--8--8----|
b|-8---8---8-----10--10--10--10--10--10--x--x----8---8--8---8--8--8----|
g|-0---0---0---0------0---0---0---0---0--x--x----0---0--0---0--0--0----|
d|-9---9-------0------0---0---0---0---0----------0---0--0---0--0--0----|
a|10--10-------9------9---9---9---9---9----------9---9--9---9--9--9----|
e|-----------------------------------------------8---8--8---8--8--8----|
"watching the whole world riot, I'm coming out, I'll be coming home next year"
part, play the above riff and tack this on after the C chord

  A7 	     C		Dadd4	     G
e|-----------3---3------5--5---------10-------------|
b|5---5--5---1---1------3-----3--3----8-------------|
g|6---6--6---0---0------0--0--0--0----0-------------|
d|5---5--5---2---2--2---4--4--4--4----9-------------|
a|7---7--7---3---3--3---5--5--5--5---10-------------|
e|5---5--5------------------------------------------|


Chorus
  C 			G
e|----------------------10---10--10--10-10-10-10-10--------|
b|5--5--5--5--5--5--5----8----8---8---8--8--8--8--8--------|
g|5--5--5--5--5--5--5----0----0---0---0--0--0--0--0--------|
d|5--5--5--5--5--5--5----9----9---9---9--9--9--9--9--------|
a|3--3--3--3--3--3--3---10---10--10--10-10-10-10-10--------|
e|---------------------------------------------------------|

repeat that then:
  C			  C#m7b5 (#IVdim)      	 D5/A >
e|--------------------------------------------------------|
b|5--5--5--5--5--5--5--5--5--5--5--5--5--5--5--5----------|
g|5--5--5--5--5--5--5--5--4--4--4--4--4--4--4--4--7-------|
d|5--5--5--5--5--5--5--5--5--5--5--5--5--5--5--5--7-------|
a|3--3--3--3--3--3--3--3--4--4--4--4--4--4--4--4--5-------|
e|------------------------------------------------5-------|


There's one part where it goes to A major briefly...
  Asus2	       A7	   Csus2/G  or  Gsus4
e|0--0--0------0--0--0-----3--3--3------3--3--3----|
b|0--0--0------2--2--2-----3--3--3------3--3--3----|
g|2--2--2------0--0--0-----0--0--0------0--0--0----|
d|2--2--2------2--2--2-----0--0--0------0--0--0----|
a|0--0--0------0--0--0-----3--3--3------3--3--3----|
e|-------------------------3--3--3------3--3--3----|
Repeat, then do a C chord, then a Dadd4 chord.


Outro
G   Dadd4/F#

_______________________
www.foofighterstabs.com


Foo Fighters albums
2005 In Your Honor
2002 One by One
1999 There Is Nothing Left To Lose
1997 The Colour & The Shape
1995 Foo Fighters
There Is Nothing Left To Lose tabs
01Stacked Actors tabbass tab
02Breakout tabbass tab
03Learn To Fly tabbass tab
04Gimme Stitches tabbass tab
05Generator tabbass tab
06Aurora tabbass tab
07Live-In Skin tabbass tab
08Next Year tabbass tab
09Headwires tabbass tab
10Ain't It The Life tabbass tab
11M.I.A. tabbass tab

 

1