Search tabs:
Browse artists: 0-9 | A | B | C | D | E | F | G | H | I | J | K | L | M | N | O | P | Q | R | S | T | U | V | W | X | Y | Z
/ Green Day / Warning (2000) / Minority guitar tab

#-----------------------------PLEASE NOTE-------------------------------------#
#This OLGA file is the author's own work and represents their interpretation  #
#of the song. You may only use this file for private study, scholarship, or   #
#research. Remember to view this file in Courier, or some other monospaced    #
#font. See http://www.olga.net/faq/ for more information.                     #
#-----------------------------------------------------------------------------#

Date: Sat, 14 Oct 2000 16:06:03 -0400
From: "Jeremy Wong" 
Subject: g/green_day/minority.tab


Song : Minority     
Album : Warning (2000)
Artist : Greenday
Tabbed by : Jeremy Wong
         jeremy@guitarsrule.com


The other guitar tab for Minority isn't accurate.
Here's my interpretation, which obviously took more than 5 minutes :

Intro :


    C        G         Fmaj7     C                   
e|---------------------------0-------------|
B|-------1---------3-----1-----1-------1---|
G|---0-----0---0-----0-----2-------------0-|
D|-----2---------0-----3---------0h2-------|
A|-3---------------------------------3-----|
E|-----------3-----------------------------|

   C         G         F     C

e|-----------------------------|
B|-------1---------3-----------|
G|---------0---0-----0-2-0-----|
D|-0h2-----------0-----3-2-3-2-|
A|-----3-------------------5-3-|
E|-----------3-----------------|


Chorus :


   C                F         G       F
e|---------------------------------------------|
B|---------------------------------------------|
G|-5-5-5---------------------------------------|
D|-5-5-5------------3-3-3-----5-5-5---3-3-3----|
A|-3-3-3------------3-3-3-----5-5-5---3-3-3----| (repeat)
E|------------------1-1-1-----3-3-3---1-1-1----|

   I want to        be the    minority
   I don't          ...
   Down with the    ...
   'Cause I want to be the    minority


Verse 1 :

  C      G          F      G
I pledge allegiance t...

    C            G            F             G
One nation under d...
  
  C           G     F                  G
A face in the c...

    C            G              F              C
Without a doubt, s...


repeat Chorus

Bridge :

   Am             E   F           C
e|------------------------------------------|
B|------------------------------------------|
G|----------------9---10-10-10-10-5-5-5-5---|
D|-7-7-7-7-7-7----9---10-10-10-10-5-5-5-5---|
A|-7-7-7-7-7-7----7---8--8--8--8--3-3-3-3---|
E|-5-5-5-5-5-5------------------------------|

   Stepped ...


   Am           E    F       G
e|--------------------------------------|
B|--------------------------------------|
G|--------------------------------------|
D|-7-7-7-7-7-7--2----3-3-3-3--5-5-5-5---|
A|-7-7-7-7-7-7--2----3-3-3-3--5-5-5-5---|
E|-5-5-5-5-5-5--0----1-1-1-1--3-3-3-3---|

   Like a .....

 
   Am           E  F           C
e|---------------------------------------|
B|---------------------------------------|
G|--------------9--10-10-10-10-5-5-5-5---|
D|-7-7-7-7-7-7--9--10-10-10-10-5-5-5-5---|
A|-7-7-7-7-7-7--7--8--8--8--8--3-3-3-3---|
E|-5-5-5-5-5-5---------------------------|

   Marching out of time 

 
   Am           F    G
e|-----------------------------------------------------|
B|-----------------------------------------------------|
G|-----------------------------------------------------|
D|-7-7-7-7-7-7--3----5-5-x-x-5-5-x-x---5-5-5----5-5----|
A|-7-7-7-7-7-7--3----5-5-x-x-5-5-x-x---5-5-5----5-5----|
E|-5-5-5-5-5-5--1----3-3-x-x-3-3-x-x---3-3-3----3-3----|

   To my own    beat now...........the only way I know

Verse 2 :

(with same chord pro. for each line)

repeat Chorus

repeat Bridge 

repeat Verse 2 

repeat Chorus 

repeat Chorus again with the following played slowly :

e|-----------8--------------------------8----8-8---8------|
B|--------8-----8--------------------8-----8-----8--------|
G|-9--10-----------10--9------9--10-------------------5---|
D|------------------------10--------------------------5---|
A|----------------------------------------------------3---|
E|--------------------------------------------------------|

Outro :

(same as intro)



Green Day albums
2004 American Idiot
2002 Shenanigans
2001 International Superhits!
2000 Warning
1997 Nimrod
1995 Insomniac
1994 Dookie
1992 Kerplunk
1991 1039/Smoothed Out Slappy Hours
Warning tabs
01Warning tabbass tab
02Blood, Sex & Booze tabbass tab
03Church On Sunday tabbass tab
04Fashion Victim tabbass tab
05Castaway tabbass tab
06Misery tabbass tab
07Deadbeat Holiday tabbass tab
08Hold On tabbass tab
09Jack Ass tabbass tab
10Waiting tabbass tab
11Minority tabbass tab
12Macy's Day Parade tabbass tab

 

1