Search tabs:
Browse artists: 0-9 | A | B | C | D | E | F | G | H | I | J | K | L | M | N | O | P | Q | R | S | T | U | V | W | X | Y | Z
/ Jet / Get Born (2003) / Last Chance guitar tab

Jet - Last Chance
Tabbed By: Neil Dobbie
Email: guitar_neil22@hotmail.com

Tuning: Standard (E A D G B E)



Intro:

can you just give me one more try at that...yeah!
E|--------------------------------------------------------------------------------------||
B|--------------------------------------------------------------------------------------||
G|--11-11-11-11-11-----11-11-11-11-11-----11-11-11-11-11-----11-11-11-11-11-11-11-11-9--||
D|--11-11-11-11-11-----11-11-11-11-11-----11-11-11-11-11-----11-11-11-11-11-11-11-11-9--||
A|--9--9--9--9--9------9--9--9--9--9------9--9--9--9--9------9--9--9--9--9--9--9--9--7--||
E|--------------------------------------------------------------------------------------||


E|------------------------------------------------------------||
B|------------------------------------------------------------||
G|----------------7---------------------------7---------------||
D|--5-7-5-7-5-2---7-7-5-7-5-2---5-7-5-7-5-2---7-7-5-7-5-2-----||
A|--5-7-5-7-5-2---5-7-5-7-5-2---5-7-5-7-5-2---5-7-5-7-5-2-----||
E|--3-5-3-5-3-0-----5-3-5-3-0---3-5-3-5-3-0-----5-3-5-3-0-----||
                                                     you aint nothin with me if you

E|----------------------------------------------------------||
B|----------------------------------------------------------||
G|----------------7-----------------------------------------||
D|--5-7-5-7-5-2---7-7-5-7-5-2---5-7-5-7-5-2---5-7-8-7-7-----||
A|--5-7-5-7-5-2---5-7-5-7-5-2---5-7-5-7-5-2---5-7-8-7-7-----||
E|--3-5-3-5-3-0-----5-3-5-3-0---3-5-3-5-3-0---3-5-6-5-5-----||
got nothin to say     i dont know what you got that i could use anyway

E|---------------------------------------------------------||
B|---------------------------------------------------------||
G|----------------------------------------------------7----||
D|--9-9-7-9---9-9-9---9-9-7-9---9-9-9---5-5-2-5---7-7-7----||
A|--9-9-7-9---9-9-9---9-9-7-9---9-9-9---5-5-2-5---7-7-5----||
E|--7-7-5-7---7-7-7---7-7-5-7---7-7-7---3-3-0-3---5-5------||
Last chance honey   last chance honey  yeah this is your last chance honey

E|----------------------------------------------------||
B|----------------------------------------------------||
G|------------------------------7---------------------||
D|--9-9-5-9---9-9-9---5-5-2-5---7-7-5-7-5-2-----------||
A|--9-9-5-9---9-9-9---5-5-2-5---5-7-5-7-5-2-----------||
E|--7-7-3-7---7-7-7---3-3-0-3-----5-3-5-3-0-----------||
Last chance honey  yeah this is your last chance

E|----------------------------------------------------------||
B|----------------------------------------------------------||
G|----------------7---------------------------7-------------||
D|--5-7-5-7-5-2---7-7-5-7-5-2---5-7-5-7-5-2---7-7-5-7-5-2---||
A|--5-7-5-7-5-2---5-7-5-7-5-2---5-7-5-7-5-2---5-7-5-7-5-2---||
E|--3-5-3-5-3-0-----5-3-5-3-0---3-5-3-5-3-0-----5-3-5-3-0---||
you aint nothin with me so keep your honey in check   i got somethin for you that

E|----------------------------||
B|----------------------------||
G|----------------------------||
D|--5-7-5-7-5-2---5-7-8-7-7---||
A|--5-7-5-7-5-2---5-7-8-7-7---||
E|--3-5-3-5-3-0---3-5-6-5-5---||
you aint never gonna get so cmon!

E|--------------------------------------------------------||
B|--------------------------------------------------------||
G|----------------------------------------------------7---||
D|--9-9-7-9---9-9-9---9-9-7-9---9-9-9---5-5-2-5---7-7-7---||
A|--9-9-7-9---9-9-9---9-9-7-9---9-9-9---5-5-2-5---7-7-5---||
E|--7-7-5-7---7-7-7---7-7-5-7---7-7-7---3-3-0-3---5-5-----||
Last chance honey    last chance honey  yeah this is your last chance honey

E|-------------------------------------------------||
B|-------------------------------------------------||
G|----------------------------------9--------------||
D|--9-9-7-9---9-9-9---5-5-2-5---7-7-9--------------||
A|--9-9-7-9---9-9-9---5-5-2-5---7-7-7--------------||
E|--7-7-5-7---7-7-7---3-3-0-3---5-5----------------||
Last chance honey  yeah this is your last chance

E|--------7-------5-4---------7-------5-4---||
B|--7-7-7-----7-7-------7-7-7-----7-7-------||
G|------------------------------------------||
D|------------------------------------------||
A|------------------------------------------||
E|------------------------------------------||


E|------5-7---------5-4-------5-7---------5-4-----||
B|--7-7-------7-7-7-------7-7-------7-7-7---------||
G|------------------------------------------------||
D|------------------------------------------------||
A|------------------------------------------------||
E|------------------------------------------------||


E|--------------------------------------------------------||
B|--12--12--12---12-12-12---12--12--12---12-12-12---------||
G|--------------------------------------------------------||
D|--------------------------------------------------------||
A|--------------------------------------------------------||
E|--------------------------------------------------------||


E|--------------------------------------------------------||
B|--12--12--12---12-12-12---12--12--12---12-12-12---------||
G|--------------------------------------------------------||
D|--------------------------------------------------------||
A|--------------------------------------------------------||
E|--------------------------------------------------------||


E|-------------------------------------------------||
B|-------------------------------------------------||
G|----------------7--------------------------------||
D|--5-5-2-5---7-7-7---9-9-7-9---9-9-9--------------||
A|--5-5-2-5---7-7-5---9-9-7-9---9-9-9--------------||
E|--3-3-0-3---5-5-----7-7-5-7---7-7-7--------------||
Last chance honey     Last chance honey

Intro
1st


Jet albums
2004 Rare Tracks
2003 Get Born
Get Born tabs
01Last Chance tabbass tab
02Are You Gonna Be My Girl tabbass tab
03Rollover D.J. tabbass tab
04Look What You've Done tabbass tab
05Get What You Need tabbass tab
06Move On tabbass tab
07Radio Song tabbass tab
08Get Me Outta Here tabbass tab
09Cold Hard Bitch tabbass tab
10Come Around Again tabbass tab
11Take It or Leave It tabbass tab
12Lazy Gun tabbass tab
13Timothy tabbass tab

 

1