Search tabs:
Browse artists: 0-9 | A | B | C | D | E | F | G | H | I | J | K | L | M | N | O | P | Q | R | S | T | U | V | W | X | Y | Z
/ Jet / Get Born (2003) / Rollover D.J. guitar tab

Jet - Rollover DJ
Submitted By: Sqweeky
EMail: Blindside831@aol.com
Album: Get Born
Tabber: Andrew Biles

I've put down a basic order for this song, rhythms you'll have to work out as
well but for the ones where notes are added to the 5th chords I've put a kind of
structure to them.  I've not put in the second guitar as I haven't worked that
out yet, but this was fairly simple so I'll see what I can do about the second
guitar.  Last chorus is extended a bit, but I haven't written it down the way it
is, it's basically the last sentence said over again so same chords apply.

Standard Tuning

|--------------------------------------------
|--------------------------------------------
|--------------7-7-7-x-----------------------
|-7-7-5-7--5-5-5-5-5-x-7-7-5-7--5-5-------x--
|-5-5-3-5--3-3-------x-5-5-3-5--3-3-5-5-5-x--
|-----------------------------------3-3-3-x--
  Intro Riff

|-------------------------------------------------------
|-------------------------------------------------------
|-------------------------------------------------------
|-7-------5-------7-------5-------7-------5-------------
|-5-------3-------5-------3-------5-------3-------7-----
|-------------------------------------------------5-----
  Verse Chords

|--------------------------------------------------------------------------
|--------------------------------------------------------------------------
|--------------------------------------------------------------------------
|-7-------------5-------------------10-----------------7-------------------
|-5-------------3-------------------8-----------5------5-------------------
|-----------------------------------------------3--------------------------
  Hey, rollover DJ, you're spinning away, on my time.  Hey, who cares what

-----------------------------------------------------------------------------
-----------------------------------------------------------------------------
-----------------------------------------------------------------------------
-----5-----------------------10----------------------7-------------5---------
-----3-----------------------8----------------5------5-------------3---------
----------------------------------------------3------------------------------
 you play?  say whatever you say, cos I don't mind.  Hey, rollover DJ if you

-------------|
-------------|
-------------|
-------10----|
-------8-----|
-------------|
 don't mind.

|--------------------------------------------
|--------------------------------------------
|--------------7-7-7-x-----------------------
|-7-7-5-7--5-5-5-5-5-x-7-7-5-7--5-5-------x--
|-5-5-3-5--3-3-------x-5-5-3-5--3-3-5-5-5-x--
|-----------------------------------3-3-3-x--
  Intro Riff

|-------------------------------------------------------
|-------------------------------------------------------
|-------------------------------------------------------
|-7-------5-------7-------5-------7-------5-------------
|-5-------3-------5-------3-------5-------3-------7-----
|-------------------------------------------------5-----
  Verse Chords

|--------------------------------------------------------------------------
|--------------------------------------------------------------------------
|--------------------------------------------------------------------------
|-7-------------5-------------------10-----------------7-------------------
|-5-------------3-------------------8-----------5------5-------------------
|-----------------------------------------------3--------------------------
  Hey, rollover DJ, you're spinning away, on my time.  Hey, who cares what

-----------------------------------------------------------------------------
-----------------------------------------------------------------------------
-----------------------------------------------------------------------------
-----5-----------------------10----------------------7-------------5---------
-----3-----------------------8----------------5------5-------------3---------
----------------------------------------------3------------------------------
 you play?  say whatever you say, cos I don't mind.  Hey, rollover DJ if you

-------------|
-------------|
-------------|
-------10----|
-------8-----|
-------------|
 don't mind.

|--------------------------------------------------
|--------------------------------------------------
|---------------------------7--9--7-9--7-7-9-10-9--
|-7--9--7-9--5--5-7--5-5-7--5--5--5-5--5-5-5-5--5--
|-5--5--5-5--3--3-3--3-3-3-------------------------
|--------------------------------------------------
  Cool break

|---------------------
|---------------------
|-----------------7---
|-7-------5-------5---
|-5-------3-----------
|---------------------
  Rhythm under solo

|--------------------------------------------------------------------------
|--------------------------------------------------------------------------
|--------------------------------------------------------------------------
|-7-------------5-------------------10-----------------7-------------------
|-5-------------3-------------------8-----------5------5-------------------
|-----------------------------------------------3--------------------------
  Hey, rollover DJ, you're spinning away, on my time.  Hey, who cares what

-----------------------------------------------------------------------------
-----------------------------------------------------------------------------
-----------------------------------------------------------------------------
-----5-----------------------10----------------------7-------------5---------
-----3-----------------------8----------------5------5-------------3---------
----------------------------------------------3------------------------------
 you play?  say whatever you say, cos I don't mind.  Hey, rollover DJ if you

-------------|
-------------|
-------------|
-------10----|
-------8-----|
-------------|
 don't mind.

any questions? andrewbiles@hotmail.com
_____________________
Lyrics (www.sing365.com):

got your rounds going round in my head
got your supersonic beats mixing up my kids
so dance lil dj cmon
whats your name
iwanna move but it dont feel right
cos you've been playing other peopels songs all night
so tell what your trying to say
whats your name?

Hey!
Rollover DJ your spinning away on my time
Hey!
Who cares what you play, say whatever you say
Cos i dont mind
Hey!
Rollover DJ
if you dont mind

Well i know that you think your a star
A pill poppin jukebox is all that your are
So tell me it aint that way
Whats your name?
Yeah!

Hey!
Rollover DJ your spinning away on my time
Hey!
Who cares what you play, say whatever you say
Cos i dont mind
Hey!
Rollover DJ
if you dont mind

Hey!
Rollover DJ your spinning away on my time
Hey!
Who cares what you play, say whatever you say
Cos i dont mind
Hey!
Rollover DJ
if you dont mind

Hey!
Rollover DJ
if you dont mind

Hey!
Rollover DJ
if you dont mind

Yeah!


Jet albums
2004 Rare Tracks
2003 Get Born
Get Born tabs
01Last Chance tabbass tab
02Are You Gonna Be My Girl tabbass tab
03Rollover D.J. tabbass tab
04Look What You've Done tabbass tab
05Get What You Need tabbass tab
06Move On tabbass tab
07Radio Song tabbass tab
08Get Me Outta Here tabbass tab
09Cold Hard Bitch tabbass tab
10Come Around Again tabbass tab
11Take It or Leave It tabbass tab
12Lazy Gun tabbass tab
13Timothy tabbass tab

 

1