Search tabs:
Browse artists: 0-9 | A | B | C | D | E | F | G | H | I | J | K | L | M | N | O | P | Q | R | S | T | U | V | W | X | Y | Z
/ Jimi Hendrix / Are You Experienced? (1967) / Fire guitar tab

FIRE BY JIMI HENDRIX
tabbed by MaxxDaddy

Intro:
-------------------------------------------------------
-------------------------------------------------------
--13-12\-x-x-10/12--------x-x--13-12--10/12------------
-------------------12-12\----------------------12-12\--
--11-10\-x-x--8/10--------x-x--11-10---8/10-x-x--------
-------------------10-10\----------------------10-10\--


Verse
  6x
||-------------||
||-------------||
||-------------||
||----10-12-12-||
||-12----------||
||-------------||


Chorus
     D   D9      C9                    D          D9      C9     
-----10--12--10--10--10\----------------------10--12--10--10--10---------
-----10--10--10---8---8\----------------------10--10--10---8---8-8-------
-----11--11--11---9---9\----------------------11--11--11---9---9-9-------
-----12------12--10---------10-12-12----------12--12------10----------12-
------------------------/12----------------------------------------/14---
-10-------------------------------------10-------------------------------

        D              C9                D9            C9
--------10-10-12-10-10-10----------------10-10-12-10---10---
--------10-10-10-10--8--8----------------10-10-10-10----8\--
--------11-------11--9--9-----7-9-7------11-11-11-11----9\--
-14p12--12-------12---------9-------10------------12--------
------------------------------------------------------------
--------10-10--------8-------------------10-10----------8---


Guitar solo:
-12-----12-----12-------------12-----12-----12-----------------
-15(17)-15(17)-15(17)15-------15(17)-15(17)-15(17)-12----------
------------------------12~~--------------------------14(16)~~-
---------------------------------------------------------------
---------------------------------------------------------------
---------------------------------------------------------------

-12-----12-----12----------------12-----12-----12-----------
-15(17)-15(17)-15(17)15----------15(17)-15(17)-15(17)-------
------------------------14(16)~~-----------------------12~~-
------------------------------------------------------------
------------------------------------------------------------
------------------------------------------------------------
repeat intro


Guitar Solo 2:

-12-----12-----12------12---------12-----12-----12----------
-15(17)-15(17)-15(17)--15(17)~~---15(17)-15(17)-15(17)-15~~-
------------------------------------------------------------
------------------------------------------------------------
------------------------------------------------------------
------------------------------------------------------------

--12-----12-----12------12---------12-----12-----12------------
--15(17)-15(17)-15(17)--15(17)~~---15(17)-15(17)-15(17)15------
----------------------------------------------------------12~~-
---------------------------------------------------------------
---------------------------------------------------------------
---------------------------------------------------------------

--12-----12-----12------12----------------15-----15-----15------15-------
--15(17)-15(17)-15(17)--15(17)15\13-------15(17)-15(17)-15(17)--15(17)~~-
------------------------------------10~~---------------------------------
-------------------------------------------------------------------------
-------------------------------------------------------------------------
-------------------------------------------------------------------------

------------------------------------------------------------------
--15(17)-15(17)-15(17)--15p12----------15(17)-15(17)-15(17)--15~~-
------------------------------14(16)~~----------------------------
------------------------------------------------------------------
------------------------------------------------------------------
------------------------------------------------------------------

Outro: fade(album version) or repeat intro(live version)


Lyrics:

You don't care for me, I don't care about that.
Ya' got a new fool, I like it like that.
I have only one a burnin' desire.
Let me stand next to your fire!

D9                        C9
(Let me stand next to your fire!)
	Let me stand baby.
D9                        C9
(Let me stand next to your fire!)
	Oh let me stand.
D9                        C9
(Let me stand next to your fire!)
	Ya' got to let me stand.
D9                        C9
(Let me stand next to your fire!)
Aw shucks! Yeah!

Ya' say your mom ain't home, ya can't let me in.
Well I had you before, I don't need you again.
I have only one a burnin' desire.
Let me stand next to your fire!

Chorus

Bridge :

D
Move over Rover
C9
And let Jimi take over.
A
You know what I'm talking about!
C
yeah! Get on with it baby!


Guitar solo 1

Ya try to give me your money, you better save it babe.
Save it for a rainy day.
I have only one a burnin' desire,
Let me stand next to your fire!

Chorus

Guitar solo 2

Outro.


Jimi Hendrix albums
2000 Experience Hendrix (The Best Of) [CD 1]
1967 Are You Experienced?
Are You Experienced? tabs
01Purple Haze tabbass tab
02Manic Depression tabbass tab
03Hey Joe tabbass tab
04Love Or Confusion tabbass tab
05May This Be Love tabbass tab
06I Don't Live Today tabbass tab
07The Wind Cries Mary tabbass tab
08Fire tabbass tab
09Third Stone From The Sun tabbass tab
10Foxey Lady tabbass tab
11Are You Experienced? tabbass tab
12Stone Free tabbass tab
1351st Aniversary tabbass tab
14Highway Chile tabbass tab
15Can You See Me tabbass tab
16Remember tabbass tab
17Red House tabbass tab

 

1