Search tabs:
Browse artists: 0-9 | A | B | C | D | E | F | G | H | I | J | K | L | M | N | O | P | Q | R | S | T | U | V | W | X | Y | Z
/ Jimi Hendrix / Are You Experienced? (1967) / Manic Depression guitar tab

MANIC DEPRESSION BY JIMI HENDRIX
tabbed by MaxxDaddy

3/4 time

Intro:
-------------------------
-------------------------
-------------------------
-----------------5--6--7-
--5--6--7----------------
-------------------------

  2x
||---------------------------------||
||---------------------------------||
||---------------------------------||
||-----7--5--7--5------7--5--7--5--||
||--0---------------0--------------||
||--5---------------5--------------||


Verse:

 A        G            D           A  *  2x         
-------------------------------||--------------------------------||
-------------------------------||--------------------------------||
-------------------------------||--------------------------------||
-------------------------------||-----7--5--7--5-----7--5--7--5--||
-----4--7-----2--5-----5--6--7-||--0--------------0--------------||
--5--------3-------------------||--5--------------5--------------||

 A        G            D           A  *  2x         
-------------------------------||--------------------------------||
-------------------------------||--------------------------------||
-------------------------------||--------------------------------||
-------------------------------||-----7--5--7--5-----7--5--7--5--||
-----4--7-----2--5-----5--6--7-||--0--------------0--------------||
--5--------3-------------------||--5--------------5--------------||


* alternate:
-------------------------------------------------------------------
----5-------5-------5-------5--------5-------5-------5-------5-----
----7(9)~---7(9)~---7(9)~---7(9)~----7(9)~---7(9)~---7(9)~---7(9)--
-------------------------------------------------------------------
--0----------------0---------------0---------------0---------------
--5----------------5---------------5---------------5---------------

 E          G         D                      C           G
--------------------------------------------------------------------------
--------------------------------------------------------------------------
--------------------------------------------------------------------------
--------------------------------------------------------------------------
-------2-------2--5---5~---3-5--3-5--3-5---2-3--2-3--2-3------------------
-0--4-------3---------------------------------------------2-3--2-3--2-3---

 A        G           D                A
-----------------------------------------------
-----------------------------------------------
-----------------------------------------------
---------------------------------------5--6--7-
-----4--7-----2--5-----5--6--7--x-x-x----------
--5--------3-----------------------------------

SOLO:
---------------------------------------------------------
---------------------------------------------------------
---------------------------------------------------------
------------------5--6--7--x-x-x-----------------5--6--7-
--5--6--7--x-x-x------------------5--6--7--x-x-x---------
---------------------------------------------------------

------------------------------------------
--5---------8---------12---------15-------
--7(9)~~---10(12)~~---14(16)~~---17(19)~~-
------------------------------------------
------------------------------------------
------------------------------------------

------------------------------------------------
-15---------------------------------------------
-17(19)17(19)-17(19)17-17(19)-----17(19)-17(19)-
-----------------------17-----17---------17(19)-
------------------------------------------------
------------------------------------------------

-------------5--------5-5----------5------8p5---8p5---8-5h7p5---5-5-----
--------5-8--5--8(10)-----8p5-----5---8p5-----5-----5---------8---8(10)-
-/5-7(9)----------------------7(9)--------------------------------------
------------------------------------------------------------------------
------------------------------------------------------------------------
------------------------------------------------------------------------

-5-----------------------------5-----------8-10-8-10/12-----15(17)-
---8--5------8p5--------------5--8(10)-/10-8h10p8-------10~-15(17)-
--------7(9)-----7(9)7-5----5--------------------------------------
--------------------------7----------------------------------------
-------------------------------------------------------------------
-------------------------------------------------------------------

-(17)15\7\5-17-17--17----17--------17-------17-------17-------------------------
-------------------20(22)---20(22)---20(22)-17-20p17----17-----17h20p17---20p17-
--------------------------------------------------------19(21)---------20-------
--------------------------------------------------------------------------------
--------------------------------------------------------------------------------
--------------------------------------------------------------------------------

----------------------------------------------------------17-17-----17-20-
-------20-------20------20------20------20------20-------17--20(22)-------
-19(21)---19(21)--19(21)--19(21)--19(21)--19(21)--19(21)------------------
--------------------------------------------------------------------------
--------------------------------------------------------------------------
--------------------------------------------------------------------------

------------17--------------------------------------------------
-x-x--20(22)---20-17--------20--------20--------20--------------
-x-x-----------------19(21)----19(21)----19(21)-----19(21)~~~~~-
----------------------------------------------------------------
----------------------------------------------------------------
----------------------------------------------------------------

---------------------------------
------------20-------------------
-19(21)~~~-----19(21)19-17~~~~~~-
---------------------------------
---------------------------------
---------------------------------

Outro:
------------------------------------------
--5---------8---------12---------15-------
--7(9)~~---10(12)~~---14(16)~~---17(19)~~-
------------------------------------------
------------------------------------------
------------------------------------------

------------------------------
------------------------------
-5~~~-------------------------
-------7~~~--7~~~-5~~~--------
-----------------------5(7)-0-
------------------------------


LYRICS:
A     G             D           A
Manic Depression is touching my soul
A              G             D           A
I know what I want but I-I just don't know 
how to go about gettin' it

E             G       D             C       G  
Feeling Sweet Feeling drops from my fingers fenders
A     G                D
Manic Depression has a captured my soul
Yeah

A           G             D           A
Woman's so willing her sweet cause in vain
     A              G         D           A
You make love you break love it's all the same
when it's-when it's over


E             G       D             C       G  
Music Sweet Music I wish I could caress..caress... 
         A     G                D
caress...Manic Depression is a frustrating mess!

GUITAR SOLO

       A                G             D              A
Well I think I'm  gonna tear myself off and a go on down
all the way down   
A              G          D        A
Really aint no use in me hanging around your kinda scene


E             G       D             C       G  
Music Sweet Music I wish I could caress and kiss...kiss
A        G             D
Manic Depression is a frustrating mess!


Jimi Hendrix albums
2000 Experience Hendrix (The Best Of) [CD 1]
1967 Are You Experienced?
Are You Experienced? tabs
01Purple Haze tabbass tab
02Manic Depression tabbass tab
03Hey Joe tabbass tab
04Love Or Confusion tabbass tab
05May This Be Love tabbass tab
06I Don't Live Today tabbass tab
07The Wind Cries Mary tabbass tab
08Fire tabbass tab
09Third Stone From The Sun tabbass tab
10Foxey Lady tabbass tab
11Are You Experienced? tabbass tab
12Stone Free tabbass tab
1351st Aniversary tabbass tab
14Highway Chile tabbass tab
15Can You See Me tabbass tab
16Remember tabbass tab
17Red House tabbass tab

 

1