Search tabs:
Browse artists: 0-9 | A | B | C | D | E | F | G | H | I | J | K | L | M | N | O | P | Q | R | S | T | U | V | W | X | Y | Z
/ Jimi Hendrix / Are You Experienced? (1967) / The Wind Cries Mary guitar tab

The Wind Cries Mary - Jimi Hendrix
transcribed by MaxxDaddy

Intro:
  (2X)

   Eb  E   F       Eb/G  E/G#  F/A
||-----------------------------------||
||-----------------------------------||
||-8---9---10------8-----9-----10----||
||-8---9---10------8-----9-----10----||
||-6---7---8-------8h10--9h11--10h12-||
||-6---7---8-------------------------||

--------------------
--------------------
--------------------
-------10-12-10-----
-10h12----------12\-
--------------------

Verse:
   (4X)
   C        B     F
||----------------------------------||
||----8-----6-------1--1---1--------||
||----9-----7-------2--0h2-0h2--0---||
||---10-----8-------3-------------3-||
||----------------------------------||
||-8-----7--6-----1-----------------||

  G          Bb      Eb E  F        G          Bb      Eb E  F   
------------------------------------------------------------------
--3-5-3------6-8-6------------------3----------6------------------
--4-4---4----7-7---7-8--9--10-------4-5-4------7-8-7---8--9--10---
--5----------8-------8--9--10-------5-5---5----8-8---8-8--9--10---
---------------------6--7--8---------------------------6--7--8----
--3--------3/6-------6--7--8------8\3--------3/6-------6--7--8----

 Eb/G E/G#  F/A
--------------------------------------
--------------------------------------
-8----9-----10------------------------
-8----9-----10-----------10-12-10-----
-8h10-9h11--10h12--10h12----------12\-
--------------------------------------

solo:

 C        Bb            F                    
----13\---8--8-8----------------------------------
-13h15\---8-10-8--8-8---------10--10----10----10~-
-----------------10-----10----10--10h12-10----10~-
------------------------10h12--------------12-----
--------------------------------------------------
--------------------------------------------------

 C        Bb            F                    
----13\---8--8-8------------------------------
-13h15\---8-10-8--8-8---------10----------10~-
-----------------10-----10----10h12-10----10~-
------------------------10h12-------10h12-----
----------------------------------------------
----------------------------------------------

 C        Bb            F                    
----13\---8--8-8-------------------------------
-13h15\---8-10-8--8-8---------10--10----10-----
-----------------10-----10----10--10h12-10-----
------------------------10h12--------------12~-
-----------------------------------------------
-----------------------------------------------

 G                                 Bb                        
-15-----10-10-10----10----10-------8p6-6----6---6-
-15h17--10-12-10----10h12-10h12----6---8p6--6---6-
-----------------12----------------7---7----8p7-7-
--------------------------------------------------
--------------------------------------------------
--------------------------------------------------

 Db
----------------------9------------
-12(14)--11p9-------9--------------
--------------11(13)----11(13)--9~-
-----------------------------------
-----------------------------------
-----------------------------------

 F
-13----13--8-8--8----8-8--8---------------------------
-13h15-13--8-10-8----8-10-8---------------------------
------------------10----------10----10----10----------
------------------------------10-12----12-10----------
----------------------------------------------13-12~~-
------------------------------------------------------

Outro:

Eb E F

8/10\8---------
8/10\8--10h11~-
--------10-----
--------10h12~-
---------------
---------------

Eb/G E/G# F/A

---------------------
---------------------
---------------------
-10h12-10------------
----------12-10-8----
------------------10-

Eb E F

----------------
----------------
----------------
----------------
------8-10-8----
-8h10--------10-

Eb/G E/G# F/A

-8----8--------8/10--8-------------
-8h10-8--------8/10--8--10h11--10~-
--------10\8------------10-----10~-
------------------------10h12--10~-
-----------------------------------
-----------------------------------

Lyrics:
C             Bb                 F
After all the jacks are in their boxes
C                   Bb          F
And the clowns have all gone to bed
C                      Bb            F
You can hear happiness staggering on down the street
G         Bb         Eb E F
Footsteps dressed in red
G       Bb            Eb E F  Eb E F
And the wind whispers Mary


C          Bb       F
A broom is drearily sweeping
C                       Bb          F
Up the broken peices of yesterday's life
C           Bb       F
Somewhere a queen is weeping
G           Bb          Eb E F
Somewhere a king has no wife
G            Bb    Eb E F  Eb E F
And the wind cries Mary

Solo: (C Bb F)3X G Bb Db F

C                       Bb     F
The traffic lights turn blue tomorrow
C                       Bb         F
And shine the emptyness down on my bed
C               Bb   F
The tiny island sags downstream
G                   Bb       Eb E F
Cause the life that lived is dead
G            Bb      Eb E F  Eb E F
And the wind screams Mary


C             Bb     F
Will the wind ever remember
C                Bb           F
The names it has blown in the past
C                        Bb           F
With its crutch, its old age, and its wisdom
G                         Bb     Eb E F
It whispers no, this will be the last
G            Bb    Eb E F  Eb E F  Eb E F  Eb E F
And the wind cries Mary


Jimi Hendrix albums
2000 Experience Hendrix (The Best Of) [CD 1]
1967 Are You Experienced?
Are You Experienced? tabs
01Purple Haze tabbass tab
02Manic Depression tabbass tab
03Hey Joe tabbass tab
04Love Or Confusion tabbass tab
05May This Be Love tabbass tab
06I Don't Live Today tabbass tab
07The Wind Cries Mary tabbass tab
08Fire tabbass tab
09Third Stone From The Sun tabbass tab
10Foxey Lady tabbass tab
11Are You Experienced? tabbass tab
12Stone Free tabbass tab
1351st Aniversary tabbass tab
14Highway Chile tabbass tab
15Can You See Me tabbass tab
16Remember tabbass tab
17Red House tabbass tab

 

1