Search tabs:
Browse artists: 0-9 | A | B | C | D | E | F | G | H | I | J | K | L | M | N | O | P | Q | R | S | T | U | V | W | X | Y | Z
/ Joe Satriani / The Extremist (1992) / Friends guitar tab

FRIENDS
As recorded by Joe Satriani
From the 1992 Album THE EXTREMIST
Music by Joe Satriani and Andy Johns

See Performance Notes
Gtr I (Db Ab Db Gb Bb Eb) - 'Rhythm'
Gtr II (Db Ab Db Gb Bb Eb) - 'Nashville Tuning'
Gtr III (Db Ab Db Gb Bb Eb) - 'Lead Left'
Gtr IV (Db Ab Db Gb Bb Eb) - 'Lead Right'

 Intro
  Moderately Slow Rock Q=86
                            D
 4/4
  Gtr I
                                              ~~~~~~
  W          H    Q   Q     E S S +S  E S S S E +S  S S S
|----------|--------------|--------------------------------|
|----------|--------------|-----3-(3)----------------------|
|----------|--------------|-----------2-2------------------|
|----------|--------------|-0-0-----------0-0--------------|
|----------|---------/x\--|-0------------------------------|
|----------|--------------|-0-----------------4-(4)-0-5-0--|
|
| Gtr II
| W          W              E S S +S  E S S S Q       E
|----------|--------------|--------------------------------|
|----------|--------------|--------------------------------|
|----------|--------------|-----2-(2)----------------------|
|----------|--------------|-----0-(0)----------------------|
|----------|--------------|---0-------0--------------------|
|----------|--------------|-0-----------0-0-0-4-------5----|


  A
  S S S S +E    E   +E      S S E E
|-------------------------------------|
|-------------------------------------|
|-------2-(2)---------------2---------|
|---------------2---(2)-------2-2-0---|
|-----0---------0---(0)---------------|
|-5s7---------------------------------|
|
| E   S S +S  S S S  S  +S  E   E S S
|-------------------------------------|
|-------------------------------------|
|-------2-(2)-------------------------|
|-----2-------2-2-2--2--(2)-2---2-x-x-|
|-0-------------0-0--0--(0)-0---0-x-x-|
|-------------------------------------|


  D                                  A
                       ~~~~~~
  S E   S +S  E.   S S E +S  S S S   S S S S +S  E.     S  E.   E S S
|----------------------------------|-----------------------------------|
|-------3-(3)----------------------|-----------------------------------|
|-------------2--------------------|-------2-(2)-----------2--------0--|
|---0--------------0-0-------------|-------------2---------------------|
|----------------------------------|-----0--------------0-------0-0----|
|-0--------------------4-(4)-0-5-0-|-5s7-------------------------------|
|
| E   S S +S  E  S S S Q       E     E   S S +S  S  S S S +S  E E S S
|----------------------------------|-----------------------------------|
|----------------------------------|-----------------------------------|
|-------2-(2)----------------------|-------2-(2)-----------------------|
|-------0-(0)----------------------|-----2-------2--2-2-2-(2)-2-2-x-x--|
|-----0-------0--------------------|-0--------------0-0-0-(0)-0-0-x-x--|
|-0--------------0-0-0-4-------5---|-----------------------------------|


  D                                 A
                      ~~~~~~
  E S S +S  S S S S S E +S  S S S   S S S S +S  S E   +S  S S S E E
|---------------------------------|---------------------------------|
|-----3-(3)-----------------------|---------------------------------|
|-----------2---------------------|-------2-(2)-----------2-------2-|
|---0---------0-0-0-0-------------|-------------2-----------2-------|
|---------------------------------|-----0---------0---(0)-----0-0---|
|-0-------------------4-(4)-0-5-0-|-5s7-----------------------------|
|
|                     ~
| E S S +S  E   S S S Q       E     E   S S +S  S S S  H
|---------------------------------|---------------------------------|
|---------------------------------|---------------------------------|
|-----2-(2)-----------------------|-------2-(2)---------------------|
|-----0-(0)-----------------------|-----2-------2-2-2--2------------|
|---0-------0---------------------|-0-------------0-0--0------------|
|-0-------------0-0-0-4-------5---|---------------------------------|


  Bm              Gsus2     A       D5
  E S S +S  E   S S S E   a S S E   E S S +S  E.   H
|---------------------------------|-------------------------||
|-----3-(3)-----------------------|-----3-(3)---------------||
|---------------------------------|-------------------------||
|---4-------4---------------------|---0-------0----0--------||
|-2-------------0---------------5-|-------------------------||
|-----------------4s5-5---5s7-7---|-0-----------------------||
|
| E S S +S  S E   S S S S   S S E   E S S +S  E  S E E Q
|---------------------------------|-------------------------||
|---------------------------------|-------------------------||
|-----4-(4)-----------------------|-----2-(2)---------------||
|---4-------4---------0-0-------0-|-----0-(0)----------0----||
|-2-----------2-----0---------0---|---0-------0------0------||
|-----------------5---------7-----|-0------------0-0--------||


 Main Theme
  D                                       A
  Gtr III
      ~~~~~~~~~~~~                                                   ~~~~~~~~~~~~~~~
  E.  S  +E.    S  +E     S S  Q           S  E    S  +S   +S     S  S  +Q     +S   S  S  S
|----17-(17)---19-(19)p==17-------------|---------------------------------------------------|
|---------------------------------------|-15-17---17-(17)-(17)b19---17-(17)---(17)p15-------|
|---------------------------------------|---------------------------------------------16p14-|
|---------------------------------------|---------------------------------------------------|
|---------------------------------------|---------------------------------------------------|
|---------------------------------------|---------------------------------------------------|
|
| Gtr I
|                         ~~~~~~~~
| E.  S  +S  E  S   S  S  E   +S  S S S    S  S S  S  +S    E        S   E  E   E      S  S
|---------------------------------------|---------------------------------------------------|
|-----3--(3)----------------------------|-------------------2-------------------------------|
|------------2--------------------------|----------2--(2)-----------------------------------|
|---------------0---0--0----------------|-------2--------------------2---2--2---2------2p=0-|
|---------------------------------------|-----0---------------------------------------------|
|-0-----------------------4---(4)-0-5-0-|--5------------------------------------------------|


  D
        ~~~~~~~                   ~~~
  E.    S  +E     S  S  E    S S  E    E
|------17-(17)---17-17-19s==22---17----------|
|--------------------------------------------|
|--------------------------------------------|
|--------------------------------------------|
|--------------------------------------------|
|--------------------------------------------|
|
|                            ~~~~~~~~
| E  S  S  +S  S  S  S  S S  E   +S  S S S
|--------------------------------------------|
|-------3--(3)-------------------------------|
|--------------2-----------------------------|
|----0------------0--0--0-0------------------|
|--------------------------------------------|
|-0--------------------------4---(4)-0-5-0---|


  A                                                D
                           ~~~~~~~             ~~~~~~~~~
   S  E    S  +S   E       S  +E    E  E    S  S    +E   S S  E     S  S  +S   E       +S   E     E
|------------------------------------------------|--------------------------------------------------------|
|-15-17---17-(17)-17b19---17-(17)-------------15-|-(15)---------------15-(15)-17b20---(17)-------17b19====|
|-------------------------------------14---16----|------16---14----16-------------------------------------|
|------------------------------------------------|--------------------------------------------------------|
|------------------------------------------------|--------------------------------------------------------|
|------------------------------------------------|--------------------------------------------------------|
|
|                                                                                   ~~~~~~~~~~~
|  S  S S  S  +S   S    S  S  +S  S E  S S  S  S     E   S S +S  S  S  S   S   S    E      +S  S  S     S
|------------------------------------------------|--------------------------------------------------------|
|----------------------------------------2-------|---------3-(3)------------------------------------------|
|----------2--(2)-------2-------------------2--0-|---------------2----------------------------------------|
|------------------2-------2--(2)-2-2--2---------|-------0----------0--0---0---0--------------------------|
|-------0----------------------------------------|--------------------------------------------------------|
|--5s=7------------------------------------------|---0------------------------------4------(4)-0--5-----0-|


  A
                                ~~~~~~~
     +E     +E     S     +S  S  S  +Q       S  S  S  S
|--------------------------------------------------------|
|---(17)r==(17)---17b19-(17)---17-(17)-----17-15----15---|
|------------------------------------------------16------|
|--------------------------------------------------------|
|--------------------------------------------------------|
|--------------------------------------------------------|
|
| a   S  S   S  S  E         S  S  +S  S E  E     S  S
|--------------------------------------------------------|
|------------------2-------------------------------------|
|---------------2---------------2--(2)-------------------|
|------------2---------------2---------2-2--2-----2--0---|
|--------0-----------------------------------------------|
|-5s==7--------------------------------------------------|


  Bm                Gsus2      A
    ~~~~                ~~~~~~~~~~~
   +Q       S   S E  S  E.      E.      +S
|-------------------------------------------|
|-(15)-----17--15---------------------------|
|-------------------14s16------14------(14)s|
|-------------------------------------------|
|-------------------------------------------|
|-------------------------------------------|
|
|   E  S S +S   S E  S  S  S S  S  S E
|-------------------------------------------|
|--------3-(3)------------------------------|
|----------------------------0--2-----------|
|------4--------4-4--------0-------2--------|
|---2--------------------------------0------|
|--------------------4s=5-------------------|


  D5
  ~~                 ~~~~~~~~~~~~~~
  E.     +T     +T  +H         +E  +E
|---------------------------------------||
|---------------------------------------||
|-7------(7)b8==(7)r(7)--------(7)-(7)\-||
|---------------------------------------||
|---------------------------------------||
|---------------------------------------||
|
| S  S S  S          S  S E Q   Q
|---------------------------------------||
|---------3-----------------------------||
|------2----------------2-------2-------||
|----0---------------0----0-------------||
|---------------------------------------||
|-0-------------------------0-----------||


 Guitar Tandem
  D
  Gtr III
  E.    S  +E     E    S      +E     +S   +S   S  E
|------14-(14)---14---14b15==(14)r==(14)-(14)-12s10---|
|-----------------------------------------------------|
|-----------------------------------------------------|
|-----------------------------------------------------|
|-----------------------------------------------------|
|-----------------------------------------------------|
|
| Gtr IV
| E.    S  +E     E    S      +E     +S   +S   S  E
|-----------------------------------------------------|
|-----------------------------------------------------|
|------11-(11)---11---11b12==(11)r==(11)-(11)--9s=7---|
|-----------------------------------------------------|
|-----------------------------------------------------|
|-----------------------------------------------------|
|
| Gtr I
|                                 ~~~~~~~~~~~~
| E  S  S  +S  E    S  S       S  E       +S   S  S S
|-----------------------------------------------------|
|-------3--(3)----------------------------------------|
|--------------2----2---------------------------------|
|-0--0-----------------0-------0----------------------|
|-0---------------------------------------------------|
|-0-------------------------------4-------(4)--0--5-0-|


  A                                         D
   ~~~                     ~~~                                    ~~~~~~~~~~
   E.      S  +S   S  E    H                E.    S  +E     E  S  E.    +S   S  E
|-12------12-(12)-14-10---12--------------|------14-(14)---15-15s17----(17)-14-15---|
|-----------------------------------------|-----------------------------------------|
|-----------------------------------------|-----------------------------------------|
|-----------------------------------------|-----------------------------------------|
|-----------------------------------------|-----------------------------------------|
|-----------------------------------------|-----------------------------------------|
|
|  ~~~                     ~~~                                    ~~~~~~~~~~
|  E.      S  +S   S  E    H                E.    S  +E     E  S  E.    +S   S  E
|-----------------------------------------|-----------------------------------------|
|-----------------------------------------|-----------------------------------------|
|--9-------9--(9)-11--7----9--------------|------11-(11)---12-12s14----(14)-11-12---|
|-----------------------------------------|-----------------------------------------|
|-----------------------------------------|-----------------------------------------|
|-----------------------------------------|-----------------------------------------|
|
|                                                                    ~~~~~~~
|  S  S S  S  +E      S S +S  S E S S S S   E  S  S  +S  S  E  S  S  E  +S   S  E
|-----------------------------------------|-----------------------------------------|
|-----------------------------------------|-------3--(3)----------------------------|
|----------2--(2)-------------2-----2-----|--------------2--2-----------------------|
|---------------------2-2-(2)---2-2---2-0-|----0---------------0--0-----------------|
|-------0-------------0-0-(0)-------------|-----------------------------------------|
|--5--7-----------------------------------|-0------------------------4--(4)--0--5---|


  A                                Asus2
      ~~~~~~~~~~~~          ~~~~~~~~~~~~
   S  E.      +S   S  E  S  E.      +Q
|-15s17------(17)-12s10-10s12------(12)-----|
|-------------------------------------------|
|-------------------------------------------|
|-------------------------------------------|
|-------------------------------------------|
|-------------------------------------------|
|
|     ~~~~~~~~~~~~          ~~~~~~~~~~~~
|  S  E.      +S   S  E  S  E.      +Q
|-------------------------------------------|
|-------------------------------------------|
|-12s14------(14)--9s=7--7s=9-------(9)-----|
|-------------------------------------------|
|-------------------------------------------|
|-------------------------------------------|
|
|  S  S  S S  +S   S  E  S  S  S S   S  S E
|-------------------------------------------|
|------------------------------0h2---0------|
|----------2--(2)-----------2-----------2---|
|------------------2----------------------2-|
|--------0------------0--0------------------|
|--5s=7-------------------------------------|


  D                                                   A
                                                                            ~~~~~~~~~~~
   E.    S  +E     E    E.      +S      +S   S  E      E.     S  +S   S  E  Q      +S   S  E
|-10----10-(10)---12---14------(14)b15r(14)-12s10---|-12-----12-(12)---------------------------|
|---------------------------------------------------|----------------12s10-10-----(10)-12-14---|
|---------------------------------------------------|------------------------------------------|
|---------------------------------------------------|------------------------------------------|
|---------------------------------------------------|------------------------------------------|
|---------------------------------------------------|------------------------------------------|
|
|                                                                           ~~~~~~~~~~~
|  E.    S  +E     E    E.      +S      +S   S  E      E.     S  +S   S  E  Q      +S   S  E
|---------------------------------------------------|------------------------------------------|
|---------------------------------------------------|------------------------------------------|
|--7-----7--(7)----9---11------(11)b12r(11)--9s=7---|--9------9--(9)---------------------------|
|---------------------------------------------------|-----------------9s=7--7------(7)--9-11---|
|---------------------------------------------------|------------------------------------------|
|---------------------------------------------------|------------------------------------------|
|
|                            ~~~~~~~~~~~~~~~
|  E  S  S  +S  S  S S  S  S E          +S   S  S S    S S S  S  +E      E  S S E   E      E
|---------------------------------------------------|------------------------------------------|
|--------3--(3)-------------------------------------|------------------------------------------|
|---------------2-----------------------------------|------------------------------------------|
|-----0------------0-0--0---------------------------|---------2--(2)----------2----------------|
|--------------------------0------------------------|------0-------------0--0---0---0------0---|
|--0-------------------------4----------(4)--0--5p0-|--5s7-------------------------------------|


  Bm                    Gsus2      A             D5
                                                 ~
   E.    S  +S   S  E    S  E.      E.     +S    W
|----------------------------------------------|----------------------||
|-15----15-(15)-12s10---10s12------------------|----------------------||
|----------------------------------14-----(14)S|=7--------------------||
|----------------------------------------------|----------------------||
|----------------------------------------------|----------------------||
|----------------------------------------------|----------------------||
|
|                                                ~
|  E.    S  +S   S  E    S  E.      E.     +S    W
|----------------------------------------------|----------------------||
|----------------------------------------------|----------------------||
|----------------------------------------------|----------------------||
|-12----12-(12)--9s=7----7s=9------------------|----------------------||
|----------------------------------12-----(12)S|=5--------------------||
|----------------------------------------------|----------------------||
|
|  E  S  S  +S   S  S S  S  S  S S  S S S   S    E S S +S  E S Q  E E
|----------------------------------------------|----------------------||
|--------3--(3)--------------------------------|-----3-(3)------------||
|----------------------------------------------|-----------2----------||
|-----4----------4--4-0----------0------0------|---0---------0-0--0-0-||
|--2---------------------------0------------0--|----------------------||
|------------------------4s=5-------5s7--------|-0--------------------||


 Guitar Solo
  G5                            D                             A
  Gtr IV
   ~~~~~~~~~~~~~~~~~~~~~         ~~~                                                            ~~~~~~~~~~~~~~~~~~
   S      +E.      +S    E    S  E.    S  +S   S     +S   S    S      +E.      +E     +S   +S   H
|-17b19==(17)-----(17)r-17---15-14----15-(15)-15b17r(15)-14-|----------------------------------------------------|
|-----------------------------------------------------------|-15b17==(15)-----(15)---(15)r(15)-------------------|
|-----------------------------------------------------------|----------------------------------14----------------|
|-----------------------------------------------------------|----------------------------------------------------|
|-----------------------------------------------------------|----------------------------------------------------|
|-----------------------------------------------------------|----------------------------------------------------|
|
| Gtr I
|  E          S S  +S    E    S  E  S  S  +S   E.              S       S  S S  +E      E       +E.   S +S  S S S
|---------------3--(3)-------------------------2------------|----------------------------------------------------|
|---------------3--(3)-----------------3--(3)---------------|---------------2--(2)-------------------------------|
|-------------0----------0----0-----2-----------------------|-------------2------------2-------(2)---2-(2)-------|
|-----------------------------------------------------------|----------2---------------2-------(2)---------2-----|
|-----------------------------------------------------------|--0-----------------------0-------(0)-----------0---|
|--5-----------------------------0--------------------------|--------------------------------------------------4-|
|
| Gtr II
|  E          S S  +S    S S  S  E  S  S  +S   S      S   S    E          S S  +S  S   S    S   E  S S  S  S E
|---------------3--(3)-----------------2--(2)---------------|----------------------------------------------------|
|------------------------3---------------------3------------|----------------------------------------------------|
|-----------------------------------------------------------|---------------2--(2)-------------------------------|
|-------------0---------------------0-----------------------|-------------2--------2---2----2---2--2-2--2--2-2---|
|-----------------------------------------------------0---0-|--0-----------------------0----0---0--0-0--0--0-0---|
|--5-----------------------5--5--0--------------------------|----------------------------------------------------|


  G5                             D
 ~~~~~~
   +E  S  S      +S    E       S  E.       T      +T   +S   S  S  S
|--------21b22==(21)r-21b22---21-21pb22---21b22==(21)r(21)-19-21-22----|
|----------------------------------------------------------------------|
|-(14)-x---------------------------------------------------------------|
|------x---------------------------------------------------------------|
|----------------------------------------------------------------------|
|----------------------------------------------------------------------|
|
|   E  S  S      +E.           S  E     S  S           +E      S  S
|---------3------(3)-----------------------2-----------(2)-------------|
|---------3------(3)---------------------------------------------------|
|------0--------------------------------2------------------------------|
|------------------------------0--0------------------------------------|
|------------------------------0--0----------------------------0--0----|
|---5--------------------------0--0------------------------------------|
|
|   E  S  S      +S    S    S  S  E     S  S           +S   S  S  S
|---------3------(3)-----------------------2-----------(2)-------------|
|----------------------3------------------------------------3----------|
|----------------------------------------------------------------------|
|------0--------------------------------0------------------------------|
|--------------------------------------------------------------0--0----|
|---5-----------------------5--5--0------------------------------------|


  A
                                          ~~~~~~~~~~~~~~~~~
   E.      S      +S   +S   S  S  S      +E.      +Q
|-22b24---22b24==(22)r(22)-21h22-22b24==(22)-----(22)-----|
|---------------------------------------------------------|
|---------------------------------------------------------|
|---------------------------------------------------------|
|---------------------------------------------------------|
|---------------------------------------------------------|
|
|  E    S  S      +S    S   E     E.           S   E    E
|----------0------(0)---0---0-----5-----------------------|
|---------------------------------------------------------|
|-------2--------------------------------------2---2------|
|---------------------------------------------------------|
|--0----------------------------------------------------0-|
|---------------------------------------------------------|
|
|  E    S  S      +S    S   S  S  E          S S   S  S E
|---------------------------------------------------------|
|---------------------------------------------------------|
|----------2------(2)-------------------------------------|
|-------2---------------2---2--2--2----------2-2---2--2-2-|
|--0------------------------0--0--0----------0-0---0--0-0-|
|---------------------------------------------------------|


  G5                             D
 ~~~~~~~~
   +E     S   S     +S   S  S  S  S     S  S  S  S   S      +S   S
|-(22)r\-----17b19-(17)-17-16-15-------14-15-16-17-----------------|
|--------(0)---------------------17b19--------------17pb19r(17)-15-|
|------------------------------------------------------------------|
|------------------------------------------------------------------|
|------------------------------------------------------------------|
|------------------------------------------------------------------|
|
|   E     S   S     +S   S  S  S  E        S  S +S   S       S   S
|-------------3-----(3)-----------------------2-(2)----------------|
|-------------3-----(3)--3---------------------------2-------2---0-|
|---------0-----------------0--0-----------2-----------------------|
|---------------------------------0--------------------------------|
|---------------------------------0--------------------------------|
|---5-----------------------------0--------------------------------|
|
|   E     S   S     +S   S  S  S  E        S  S +S   S       S   S
|-------------3-----(3)-----------------------2-(2)----------------|
|------------------------3---------------------------3-------------|
|------------------------------------------------------------------|
|---------0--------------------------------0-----------------------|
|------------------------------------------------------------0---0-|
|---5-----------------------5--5--0--------------------------------|


  A
                                       ~~~~~~~~~~~~~~~~
   S      +S   +S   S  S      +S    S  S  +Q       +S   +S   S S
|----------------------------------17----------------------------|
|-17b19==(17)r(17)p15--------------------------------------------|
|---------------------16b18==(16)r----14-(14)-----(14)-(14)s16---|
|----------------------------------------------------------------|
|----------------------------------------------------------------|
|----------------------------------------------------------------|
|
|  E            S   S +E            E      E.   S   E        E
|----------------------------------------------------------------|
|-------------------2-(2)----------------------------------------|
|----------------------------------------------------------------|
|--2------------2-------------------2------2----2---2------------|
|--0--------------------------------0------0----0---0--------0---|
|----------------------------------------------------------------|
|
|  E            S   S +S       S    S  S   E  S S   S    S   E
|----------------------------------------------------------------|
|----------------------------------------------------------------|
|-------------------2-(2)----------------------------------------|
|---------------2--------------2-------2---2--2-2---2----2---2---|
|--0--------------------------------0--0---0--0-0---0----0---0---|
|----------------------------------------------------------------|


  Bm                          D/F#              Gsus2            D5
           ~~~~~~~~~~~~~
   S      +E.      +Q          S     S  S  S     S  S  S     S    S      E.      +Q      Q    Q
|-20b22==(20)-----(20)r-------------17-19-------17-19-------17-|-------------------------------------|
|-----------------------------18b19-------18b19-------18b19----|-18b19-------------------------------|
|--------------------------------------------------------------|-------------------------------------|
|--------------------------------------------------------------|-------<12>-----(12)-----------------|
|--------------------------------------------------------------|-------------------------x\----------|
|--------------------------------------------------------------|-------------------------x\---9\-----|
|
|  S       S  S S  +S   S S S  S     S  S  S     S  S  S     S    E.          S   E    E H
|--------------------------------------------------------------|-------------------------------------|
|---------------3--(3)-----------------------------------------|------------------3------------------|
|-------------4------------------------------------------------|--------------2--------2-------------|
|----------4-------------------------------0-----------0-----0-|-------------------------0-----------|
|--2--------------------2-2-0-----------0-----------0----------|-------------------------------------|
|------------------------------3s====4-----------5-------------|--0----------------------------------|
|
|  E          S S  +S   S E    S     S  S  S     S  S  E          E         S S  +S  S E E  E E  E
|--------------------------------------------------------------|-------------------------------------|
|--------------------------------------------------------------|-------------------------------------|
|---------------4--(4)-----------------------------------------|--------------2--(2)-----------------|
|-------------4---------4---------------0--0-----------0-------|--------------0--(0)----------0------|
|--2----------------------2----------0--------------0----------|------------0--------0------0----0---|
|------------------------------4-----------------5-------------|--0--------------------0-0-----------|


  D/F#                 Gsus2     A         D5
                                                                                    \0.5/   \0.5/   \0.5/   \2.5   |
   E   S S +Q        a S S S S a S S S S   S  S   S   S    S   S   S    S    +E    +S      +S      +E      +S     +S
|----------------------------------------|---------------<12>----------------------------------------------------------||
|----------------------------------------|-------<7>--------------<7>-(<7>)-(<7>)-(<7>)---(<7>)---(<7>)---(<7>)--(<7>)-||
|----------------------------------------|---<7>-----<7>---------------<7>--(<7>)-(<7>)---(<7>)---(<7>)---(<7>)--(<7>)-||
|--------0-(0)-------------0-0-------0-0-|--------------------<7>------------------------------------------------------||
|------0-----------------0---------0-----|-----------------------------------------------------------------------------||
|-/4-----------------4s5-------5s7-------|-0---------------------------------------------------------------------------||
|                                          W
|
|  S S S S +E.     S   E   S S   S S S S   Q               H.
|----------------------------------------|-----------------------------------------------------------------------------||
|----------------------------------------|-----------------3-----------------------------------------------------------||
|----------------------------------------|-----------------2-----------------------------------------------------------||
|--------0-(0)-------------5-5---5s7-7-7-|-----------------0-----------------------------------------------------------||
|------0---------------------------------|-----------------------------------------------------------------------------||
|--3s4-------------4s==5-----------------|-0---------------------------------------------------------------------------||
|
|  E   S S +S  S E     S S S S   S S S S   E      S   S   +S   S   E          E     E               E       E
|----------------------------------------|-----------------------------------------------------------------------------||
|----------------------------------------|-----------------------------------------------------------------------------||
|----------------------------------------|------------2---(2)----------------------------------------------------------||
|--------0-(0)-------------0-0-------0-0-|------------0---(0)---------------------------------------0------------------||
|------0-------0---------0---------0-----|--------0------------0--------------------0-----------------------0----------||
|--4-------------0-----4---------5-------|-0-----------------------0----------0----------------------------------------||


 Guitar Solo II
  D
  E T T T T  E    T T T T E   T T T T  E    T T T T
|----------------------------------------------------|
|----------------------------------------------------|
|----------------------------------------------------|
|---4p2p0----0----4p2p0---0---4p2p0----0----4p2p0----|
|---------4-------------4-----------4-------------4--|
|----------------------------------------------------|
|
|                             ~~~~~~~~~~~~
| E S   S   +S  E     S   S S E       +S  S E
|----------------------------------------------------|
|-------3---(3)--------------------------------------|
|---------------2------------------------------------|
|---0-----------------0---0-0------------------------|
|----------------------------------------------------|
|-0---------------------------4-------(4)-0-5--------|
|
| E S   S   +S  E     S   S S Q             E
|----------------------------------------------------|
|----------------------------------------------------|
|-------2---(2)--------------------------------------|
|-------0---(0)--------------------------------------|
|---0-----------0------------------------------------|
|-0-------------------0---0-0-4-------------5--------|


  A
  T T T T T T T T  T  T T T T T T T T T  T  T T T T T Q
|-----------------------------------------------------------|
|-----------------------------------------------------------|
|-----------------------------------------------------------|
|-0h2p0------------0h=2p0-----------0h2p=0------------------|
|-------4h5p4p2p0---------4h5p4p2p0---------4h5p4p2p0-0-----|
|-----------------------------------------------------------|
|
| S   S   S   S   +E        E       S    S    S   S   E S S
|-----------------------------------------------------------|
|----------------------------------------2h===3p==2---------|
|-------------2---(2)---------------------------------2---0-|
|-------------2---(2)-------2-------2-----------------2-2---|
|---------0-----------------0-------0-----------------0-0---|
|-5s==7-----------------------------------------------------|
|
| E       S   S   +S    S   S   S   S   +S    E       E S S
|-----------------------------------------------------------|
|-----------------------------------------------------------|
|-------------2---(2)---------------------------------------|
|---------2-------------2---2---2---2---(2)---2-------2-x-x-|
|-0-------------------------0---0---0---(0)---0-------0-x-x-|
|-----------------------------------------------------------|


  D
  +S  T T S T T  S  T T S T T S T T  S T  T  S  T  T  S T  T
|---------------------------------------------------------------|
|---------------------------------------------------------------|
|---------------------------------------------------------------|
|-----0h2h4-0h4h=5--0h5h7-0h7h9-0h9h11-0h11h12--0h12h14-0h14h===|
|-(0)-----------------------------------------------------------|
|---------------------------------------------------------------|
|
|                                    ~~~~~~~~~~~
|  E      S S    S  E     S   S S    E      +S  S     S S
|---------------------------------------------------------------|
|-----------3----3----------------------------------------------|
|-------------------2-------------------------------------------|
|---------0---------------0---0-0-------------------------------|
|---------------------------------------------------------------|
|--0---------------------------------4------(4)-0-----5-0-------|
|
|  E      S S   +S  E     S   S S    Q                E
|---------------------------------------------------------------|
|---------------------------------------------------------------|
|-----------2---(2)---------------------------------------------|
|-----------0---(0)---------------------------------------------|
|---------0---------0-------------------------------------------|
|--0----------------------0---0-0----4----------------5---------|


  A
   S T  T  S T  T  S  T  T  S T  T  S   T   T  S T  T  S  T     +T   S  S
|-----------------------------------------------------------------------------|
|-----------------------------------------------------------------------------|
|-----------------------------0h16h18---0h=18h19-0h19h21-21b22r(21)-19-21b23==|
|-16-0h16h17-0h17h19--0h19h21-------------------------------------------------|
|-----------------------------------------------------------------------------|
|-----------------------------------------------------------------------------|
|
|  S S     S S     S  E       S    +S   S      S S     S  S          E
|-----------------------------------------------------------------------------|
|------------------------------------------------------2p=0----------2--------|
|------------------2----------0----(0)---------2p0----------------------------|
|------------2--------2-----------------2-------------------------------------|
|----------0------------------------------------------------------------------|
|--5s7------------------------------------------------------------------------|
|
|  E       S S    +S  S     S S     S  +S      E       E             S  S
|-----------------------------------------------------------------------------|
|-----------------------------------------------------------------------------|
|------------2----(2)---------------------------------------------------------|
|----------2----------2-----2-2-----2--(2)-----2-------2-------------x--x-----|
|--0------------------------0-0-----0--(0)-----0-------0-------------x--x-----|
|-----------------------------------------------------------------------------|


  D                                                                               A
                                                                              ~~                                 ~~~
   +S    S  S      +S    S   S      +S    S  S      +S    S  S     +T   T  S  E    Q            +E     +S   +S   Q.       S  S
|-------------------------------------------------------------------------------|-------------------------------------------------|
|-------22--------------22---------------22--------------22---------------------|-22b26========(22)---(22)r(22)-20----------20----|
|-(21)r----21b23==(21)r-----21b23==(21)r----21b23==(21)r----21b23r(21)p19----19-|-----------------------------------------0-------|
|-------------------------------------------------------------------------21----|-------------------------------------------------|
|-------------------------------------------------------------------------------|-------------------------------------------------|
|-------------------------------------------------------------------------------|-------------------------------------------------|
|
|                                                         ~~
|   E       S       S   +S   E            S  S       S    E        +S      S  E    S     S S S   S  E        S   S  S E Q
|-------------------------------------------------------------------------------|-------------------------------------------------|
|-------------------3---(3)-----------------------------------------------------|-------------------2---------------2p0-----------|
|----------------------------2--------------------------------------------------|----------------2----------------------2---------|
|-----------0-----------------------------0--0-------0--------------------------|------------2------------------------------------|
|-------------------------------------------------------------------------------|----------0-----------------0---0----------------|
|---0-----------------------------------------------------4--------(4)-----0--5-|--5s====7----------------------------------------|
|
|                                                         ~~
|   E       S       S   +S   E            S  S       S    Q                   E    E       S S  +S  S   S    S   H
|-------------------------------------------------------------------------------|-------------------------------------------------|
|-------------------------------------------------------------------------------|-------------------------------------------------|
|-------------------2---(2)-----------------------------------------------------|------------2--(2)-------------------------------|
|-------------------0---(0)-----------------------------------------------------|----------2--------2---2----2---2----------------|
|-----------0----------------0--------------------------------------------------|--0--------------------0----0---0----------------|
|---0-------------------------------------0--0-------0----4-------------------5-|-------------------------------------------------|


  Bm                            D/F#                  Gsus2
   E..       +T       +S   E     S      +S    S  S  S  S     +S   S  T      +T
|-20b22r====(20)b22==(20)r-x\---17b20==(17)r-17-16-15---------------------------|
|-----------------------------------------------------17b18r(17)p15-------------|
|-------------------------------------------------------------------16b18==(16)r|
|-------------------------------------------------------------------------------|
|-------------------------------------------------------------------------------|
|-------------------------------------------------------------------------------|
|
|  E    S S           +S   E.            S    S  S  S  S      S   S  S
|-------------------------------------------------------------------------------|
|---------3-----------(3)-------------------------------------------------------|
|-------------------------------------------------------------------------------|
|-------4------------------4------------------------0----------------0----------|
|--2--------------------------------------------------------------0-------------|
|----------------------------------------3----4--4-----4s=====5-----------------|
|
|  E    S S           +S   S  E          S    S  S  S  S      S   E
|-------------------------------------------------------------------------------|
|-------------------------------------------------------------------------------|
|---------4-----------(4)-------------------------------------------------------|
|-------4------------------4---------------------0--0-------------0-------------|
|--2--------------------------2---------------0---------------0-----------------|
|----------------------------------------4-------------5------------------------|


  D5                                                                      G5                       D
                                                   ~~~~~                   ~~~~~~~~~~~~~~~~         ~~~
   +S   S  S     +S   S   S  S  S  S  S      +E   +S     E          S      Q          +S    E    S  E.    S  +S   S      +S   S
|-----------------------------------------------------------------[14]-||-17b19======(17)r-17---15-14----15-(15)-15pb17r(15)p14-|
|----------------------------------------------------------------------||-------------------------------------------------------|
|-(16)-14--------------------------------------------------------------||-------------------------------------------------------|
|---------14b15r(14)-12-----12----12-14b16==(14)-(14)r-<16>------------||-------------------------------------------------------|
|------------------------14----14--------------------------------------||-------------------------------------------------------|
|----------------------------------------------------------------------||-------------------------------------------------------|
|
|                                                  |-----3------|
|   E      S      S   S   S  S  S  E          E    E        E   E          E     S S  +S    S E     E  S  S  +S   S       E
|----------------------------------------------------------------------||----------3--(3)-------------------------2-------------|
|---------------------3------------------------------------------------||-------------------3-------------3--(3)----------------|
|-----------------2-------2--2-----------------------------------------||--------0------------0--------2------------------2-----|
|----------0--------------------0--0----------0----0-------------------||---------------------------0---------------------------|
|-----------------------------------------------------------2---0------||---------------------------0---------------------------|
|---0------------------------------------------------------------------||--5------------------------0---------------------------|
|
|   E      S      S  +S   S  E     E          E    E          E            E     S S  +S    S S  S  E  S  S  +S   S       S   S
|----------------------------------------------------------------------||----------3--(3)-----------------2--(2)----------------|
|----------------------------------------------------------------------||-------------------3---------------------3-------------|
|-----------------2--(2)-----------------------------------------------||-------------------------------------------------------|
|-----------------0--(0)---------------------------0-------------------||--------0---------------------0------------------------|
|----------0--------------0-------------------0---------------0--------||-------------------------------------------------0---0-|
|---0------------------------0-----0-----------------------------------||--5------------------5--5--0---------------------------|


  A                                           G5                  D
                            ~~
   Q          +E.      +S   Q      +Q          E.    S  +E    E    E.   S +E    E
|-------------------------------------------|-10-----9--(9)---7---------------------|
|-15b17======(15)r====(15)------------------|-12----10-(10)---8---10----8-(8)---7---|
|--------------------------14-----(14)\-----|---------------------11----9-(9)---7---|
|-------------------------------------------|---------------------------------------|
|-------------------------------------------|---------------------------------------|
|-------------------------------------------|---------------------------------------|
|
|  E     S S  +E    E       E E     Q          E  S  S  +E    E    E  S S +E    E
|-----------------------------------5-------|--------3--(3)-------------2-(2)-------|
|----------2--(2)-----------2-------5-------|--------3--(3)-------------3-(3)-------|
|--------2----------2---------------2-------|--0--0-----------0-------2---------2---|
|--2--------------------------2-------------|--0--------------0----0------------0---|
|--0--------------------------0-------------|----------------------0----------------|
|-------------------------------------------|--5-------------------0----------------|
|
|  E     S S  +S  S S   S   E S S   S   S E    E  S  S  +S  S S S  E  S S +S  S S S
|-------------------------------------------|--------3--(3)-------------2-(2)-------|
|-------------------------------------------|---------------3-----------------3-----|
|----------2--(2)---------------------------|---------------------------------------|
|--------2--------2-2---2---2-2-2---2---2-2-|-----0-------------------0-------------|
|--0----------------0---0---0-0-0---0---0-0-|-----------------------------------0-0-|
|-------------------------------------------|--5--------------5-5--0----------------|


  A
                                ~~~~~~~~~~~~~
  S   S S S    S  S S   S S    +S  +E    +E.     +S
|-------5---------5-----5-------------------------------|
|-----5--------5----------------------------------------|
|-7b9-----7b9-------7b9---7b9==(7)-(7)---(7)-----(7)r/--|
|-------------------------------------------------------|
|-------------------------------------------------------|
|-------------------------------------------------------|
|
| E.      S    E    S   S E         S  S  E    E
|-------------------------------------------------------|
|-------------------------------------------------------|
|---------2----2----2---2-2---------2--2--2----2--------|
|---------2----2----2---2-2---------2--2--2----2--------|
|-0-------0----0----0---0-0---------0--0--0----0--------|
|-------------------------------------------------------|
|
| E     S S   +S  S S   S E         S  S  S  S E
|-------------------------------------------------------|
|-------------------------------------------------------|
|---------2---(2)---------------------------------------|
|-------2---------2-2---2-2---------2--2--2--2-2--------|
|-0-----------------0---0-0---------0--0--0--0-0--------|
|-------------------------------------------------------|


  G5                           D
           ~~~~~~~~~~~~~
                                          |---------6----------|
   S      +E.      +S   S  S S Q         +E     +S     +S  S   S
|-10b12==(10)-----(10)r----7-9-9pb10r====(9)----(9)b10r(9)p7p==5-|
|-----------------------0----------------------------------------|
|----------------------------------------------------------------|
|----------------------------------------------------------------|
|----------------------------------------------------------------|
|----------------------------------------------------------------|
|
|  E          S S  +S   E.     E     S S +S  E.
|---------------3--(3)-----------------2-(2)---------------------|
|----------------------------------------------------------------|
|--0----------0---------0------------2-------2-------------------|
|--0----------0----------------0---------------------------------|
|------------------------------0---------------------------------|
|--5---------------------------0---------------------------------|
|
|  E          S S  +S   S  S S E     S S +S  S          S    S
|---------------3--(3)-----------------2-(2)---------------------|
|-----------------------3--------------------3-------------------|
|----------------------------------------------------------------|
|-------------0----------------------0---------------------------|
|-------------------------------------------------------0----0---|
|--5-----------------------5-5-0---------------------------------|


  A
                                                     ~
                                             |--3--|
  T T T T T T T T  T  T T T T T T T T T T T  S S   S Q
|-7h9p7p5-7p5------5---------------------------------------|
|-------------8p7-----8p7p5-7h8p7p5-7p5-----(9)------------|
|---------------------------------------7p6h=9p7p==6-------|
|----------------------------------------------------7-----|
|----------------------------------------------------------|
|----------------------------------------------------------|
|
| E       S   S   +S    S   E       E.           S   E   E
|----------------------------------------------------------|
|-------------2---(2)--------------------------------------|
|---------2-------------2-----------2------------2---2---2-|
|-2-------------------------2-------2------------2---2---2-|
|-0---------------------------------0------------0---0---0-|
|----------------------------------------------------------|
|
| E       S   S   +S    S   S   S   E        S   S   S S E
|----------------------------------------------------------|
|----------------------------------------------------------|
|-------------2---(2)--------------------------------------|
|---------2-------------2-------2---2--------2---2---2-2-2-|
|-0-------------------------0---0---0--------0---0---0-0-0-|
|----------------------------------------------------------|


  Bm                            D/F#              Gsus2
               ~~~~~~~~~
   E.         +S   +E      S  S  S     S  S     S  S     +S   S  S
|-------------------------10----12b14-10-------10---------------------|
|-10b12======(10)-(10)r------10----------13b15----13b15r(13)-10-------|
|---------------------------------------------------------------12b14r|
|---------------------------------------------------------------------|
|---------------------------------------------------------------------|
|---------------------------------------------------------------------|
|
|  S     S S   S   +S   S  E     S     S  S     S  S      S   S  S
|---------------------------------------------------------------------|
|---------------------------------------------------------------------|
|----------4---4---(4)------------------------------------------------|
|--------4--------------4--4--------------------0----------------0----|
|--2--------------------------------------0-------------------0-------|
|--------------------------------3s====4-----------4s=====5-----------|
|
|  E       S   S   +S   S  E     S     S  S     S  S      S   E
|---------------------------------------------------------------------|
|---------------------------------------------------------------------|
|--------------4---(4)------------------------------------------------|
|----------4------------4-----------------0-----0-------------0-------|
|--2-----------------------2-----------0------------------0-----------|
|--------------------------------4-----------------5------------------|


  D5
                                   ~~
   +S   S  S  S  S     S  S  S     Q    +E  S S
|-----------------------------------------------|
|-----------------------------------------------|
|-(12)-11----12-10b11----12-10b11---------------|
|---------12----------12----------12---(12)s4---|
|-----------------------------------------------|
|-----------------------------------------------|
|
|   E      S  S +S     S  E        E E   Q
|-----------------------------------------------|
|----------3-----------------------3-3---3------|
|-------------2-(2)-------2--------2-2---2------|
|---0------------------0--0--------0-0---0------|
|---0-------------------------------------------|
|---0-------------------------------------------|
|
|   E      S  S +S     S  E        E E   E  E
|-----------------------------------------------|
|-----------------------------------------------|
|-------------2-(2)-----------------------------|
|-------------0-(0)----------------------0------|
|----------0-----------0-------------0------0---|
|---0---------------------0--------0------------|


  Bm                      D/F#         Gsus2
    E.    S  +S   S  S  S  S  S   E     S  S  E
|--------10-(10)----10-10--------14----------15---|
|-------------------------------------------------|
|-/11------------11-------11s14-(14)---14s16------|
|-------------------------------------------------|
|-------------------------------------------------|
|-------------------------------------------------|
|
|   E  S  S  +S   S  S  S  S  S   S  S  S  S  S S
|-------------------------------------------------|
|-------------------------------------------------|
|---------4--(4)----------------------------------|
|------4----------4--4--------------------------0-|
|---2-------------------0---------------------0---|
|--------------------------3s=4---4--4--4s=5------|
|
|   E  S  S  +S   S  E     S  S   S  S  S  S  S S
|-------------------------------------------------|
|-------------------------------------------------|
|---------4--(4)----------------------------------|
|------4----------4---------------0--0--------0-0-|
|---2----------------2--------0------------0------|
|--------------------------4------------5---------|


                                       Outro
  D5                                    D
                          ~~~~~~~~~~~         ~~~~~~~~~~~~~~~~~~~
   S  E     S   +E     E  Q.    +E      E.    S  +E.      S  +E     S S Q
|----------17--(17)------22----(22)\-||------17-(17)-----19-(19)---17-----------|
|------------------------------------||-----------------------------------------|
|-16s19---(19)-(19)---19-------------||-----------------------------------------|
|------------------------------------||-----------------------------------------|
|------------------------------------||-----------------------------------------|
|------------------------------------||-----------------------------------------|
|
|                                       PM------------------------------------|
|  E.       S   +S  S  E  H             E  S  S   S  S E      S  S  E   S S S S
|------------------------------------||-----------------------------------------|
|-----------3---(3)------------------||-----------------------------------------|
|-------------------------2----------||-----------------------------------------|
|-------------------0--0--0----------||-------0---0--0--------0--0------0-0-----|
|-------------------------0----------||----------------0------------------------|
|--0----------------------0----------||-0--0------------------------4-------5-0-|
|
|  E    S   S   +S  S  E  H             W
|------------------------------------||-----------------------------------------|
|------------------------------------||-----------------------------------------|
|-----------2---(2)------------------||-----------------------------------------|
|-----------0---(0)-------0----------||-----------------------------------------|
|-------0-----------0-----0----------||-----------------------------------------|
|--0-------------------0--0----------||-----------------------------------------|


  A
                          ~~~~~~~~~~~~~~~~~~
   S  S S  S  S   S    S  S  +Q         +S  S  S   S
|----------------------------------------------------|
|-15-17---17-----17b19---17-(17)-------(17)15--------|
|---------------------------------------------16--14-|
|----------------------------------------------------|
|----------------------------------------------------|
|----------------------------------------------------|
|
|  PM-------------------------------------------------
|  S  S S  S +S   S    S  S   S  S S S   E     E
|----------------------------------------------------|
|----------------------------------------------------|
|----------2-(2)-----------------2------------(0)----|
|----------2-(2)--2----------------x-x---2p====0-----|
|-------0--------------0--0---0----------------------|
|--5s=7----------------------------------------------|


  D                                             A7
        ~~~~~~~                        ~~~                            ~~~~~~~           ~~
  E.    S  +E     S  S  E    +S     S  E  E      S  S S  S S  S    S  S  +Q       E  S  S
|------17-(17)---17-17-19---(19)b22---17------|-------------------------------------------|
|---------------------------------------------|-15-17---17---17b19---17-(17)-----------15-|
|---------------------------------------------|----------------------------------14-16----|
|---------------------------------------------|-------------------------------------------|
|---------------------------------------------|-------------------------------------------|
|---------------------------------------------|-------------------------------------------|
|
|----|                        ~~~~~~~~~~~~  PM----------|     PM-------------|
| E  S  S   S  S  S  S  S S   E       +E  S S    E    S  S S  S    S  S   S  E S  E  E
|---------------------------------------------|-------------------------------------------|
|---------------------------------------------|-------------------------------------------|
|-------2---2---------------------------------|----------0-------------------2-0--0-------|
|----0---------0--0--0--0-0-------------------|----------2------------2h==4--2-0--0-------|
|-----------------------------------------0---|--0----0-------0----0--0------0------------|
|-0---------------------------4-------(4)---5-|-----------------------------------5--4----|


  D
    ~~~~
   +E   S S  E     S  S  +S   E        +S    E     E
|----------------------------------------------------------|
|-(15)---------------15-(15)-17b20====(17)r-------17b19====|
|------16---14----16---------------------------------------|
|----------------------------------------------------------|
|----------------------------------------------------------|
|----------------------------------------------------------|
|
|   E   S S +S  S  E      S   S     E       +S  S  S     S
|----------------------------------------------------------|
|---------3-(3)--------------------------------------------|
|-------2-------2------------------------------------------|
|------------------0------0---0-----0-------(0)------------|
|----------------------------------------------------------|
|---0-------------------------------4-------(4)-0--5-----0-|
|
| Gtr II
|   E   S S +S  E     S   S   S     Q              E
|----------------------------------------------------------|
|----------------------------------------------------------|
|---------2-(2)--------------------------------------------|
|---------0-(0)--------------------------------------------|
|-------0-------0------------------------------------------|
|---0-----------------0---0---0-----4--------------5-------|


  A                                                      Bm                    D/F#       Gsus2
                                ~~~~~~~              ~~~~~~~~~                     ~~~~~~~~~~~
   +E     +S  S  S      +S   S  S  +Q       S  S  S  S    +Q         S   S E    S  E.      E.      +S
|------------------------------------------------------|--------------------------------------------------|
|-(17)r==(17)---17b19==(17)r---17-(17)-----17-15----15-|-(15)-------17--15--------------------------------|
|------------------------------------------------16----|-----------------------14s16------14------(14)\---|
|------------------------------------------------------|--------------------------------------------------|
|------------------------------------------------------|--------------------------------------------------|
|------------------------------------------------------|--------------------------------------------------|
|
|   S  S   S  S  S       S   S  S   S  S E  E     E        S  S S S +S   S S S  S  S  S S  S  S S   S
|------------------------------------------------------|--------------------------------------------------|
|------------------------2-----------------------------|--------3-----------------------------------------|
|----------------2---------------------2---------------|----------4-(4)-----------------------------------|
|-------------2---------------------2----2--2-----2----|------4----------4--------------4-----------0-----|
|----------0-----------------0--0---0-------0-----0----|---2---------------2-0--------0---------0---------|
|---5s=7-----------------------------------------------|------------------------3s=4-------4--5-----------|
|
|   E      S  S +S       E      S   Q       Q              E    S S +S   S E    S  S  S S  S  S E
|------------------------------------------------------|--------------------------------------------------|
|------------------------------------------------------|--------------------------------------------------|
|-------------2-(2)------------------------------------|----------4-(4)-----------------------------------|
|----------2-------------2------2---2-------2----------|--------4--------4------------0-0-------0---------|
|---0---------------------------0---0-------0----------|---2---------------2-------0----------0-----------|
|------------------------------------------------------|------------------------4----------5--------------|


  D
                                  ~~~~~~~
   H               +S  +S   a  S  S  +S   S  S  S
|-------------------------------------------------|
|-------------------------------------------------|
|-\7---------------(7)-(7)S13s14-16-(16)-14-16-14-|
|-------------------------------------------------|
|-------------------------------------------------|
|-------------------------------------------------|
|
|  E S S +S  E   S  E          S  S  +S   S  S  S
|-------------------------------------------------|
|------3-(3)--------------------------------------|
|------------2--------------------0--(0)----------|
|----0-----------0--0---------/4----------2--2p=0-|
|-------------------------------------------------|
|--0----------------------------------------------|
|
|  E S S +S  S E    E          E      E      E
|-------------------------------------------------|
|-------------------------------------------------|
|------2-(2)--------------------------------------|
|------0-(0)--------------------------0-----------|
|----0-------0-----------------0-------------0----|
|--0-----------0----0-----------------------------|


  Bm                   D/F#       Gsus2        D
     ~~                    ~~~~~~~~~~~~~       ~
  E  E    S   S   s  S  S  E.       E.     S   Q      S  S    +S  S  S S    +S  S S S S S
|-------------------19-----------------------|-------10-------------------------------------|
|---15---17--15--15--------------------------|----------------------10----------------------|
|----------------------14s16------[14]s====7-|-7---------9b11r(9)p7----9b11r(9)p7-----------|
|--------------------------------------------|------------------------------------9p7-9p7---|
|--------------------------------------------|----------------------------------------------|
|--------------------------------------------|----------------------------------------------|
|
| E  S S +S   E.        S  S  S S   S  S E     Q      S  S     E     S S     S  S E   S S
|--------------------------------------------|----------------------------------------------|
|------3-(3)---------------------------------|--------3-------------------------------------|
|-------------4------------------------------|-----------2-------------0----------2---------|
|----4------------------------4-4---4s=5-5---|-0---------------0-----0-------2s=4-0---------|
|-2------------------------------------------|-0--------------------------------------2p0---|
|-----------------------3s=4--------4s=5-----|-0--------------------------------------------|
|
| E  S S +S   S   E     S  S  S S   S  S E     E S S +S  S     E     E       E    E   E
|--------------------------------------------|----------------------------------------------|
|--------------------------------------------|----------------------------------------------|
|------4-(4)---------------------------------|-----2-(2)------------------------------------|
|----4--------4---------------0-0--------0---|-----0-(0)--------------------------0---------|
|-2---------------2--------0-----------0-----|---0-------0-------------------0--------0-----|
|-----------------------4-----------5--------|-0---------------0-----0----------------------|


  Bm                 D/F#       Gsus2      D
  ~                      ~~~~~~~~~~~~~~~~~~~~~~~~~~~~~~
  Q        S  S  S S  S  E.      Q          Q      +S   E       S  E       S  S      +S    S  S     +S
|---------------10-----------------------|---------------------15---------15--------------15------------|
|----------------------------------------|-15-----(15)-17b19------17b19------17b19==(17)r----17b19r(17)-|
|-7--------9--7----0-14s16------14-------|--------------------------------------------------------------|
|----------------------------------------|--------------------------------------------------------------|
|----------------------------------------|--------------------------------------------------------------|
|----------------------------------------|--------------------------------------------------------------|
|
| S S S S +S  S  E    S  S  S S  S S S S    E S S   S   S    S  S  S    S  S  S      +E       E
|----------------------------------------|--------------------------------------------------------------|
|-------3-(3)----------------------------|--------------------------------------------------------------|
|-----4----------------------------------|--------------2p===0----------------0------(0)----------------|
|---4---------4--4------------0--------0-|--0-2p0---0-----------0--2s===4--0------------------0---------|
|-2-------------------------0--------0---|--0-----------------------------------------------------------|
|---------------------3s=4-------4s5-----|--0-----------------------------------------------------------|
|
| E   S S +S  S  E    S  S  S S  S S E      E S S  +S   S    E     E       E          E       E
|----------------------------------------|--------------------------------------------------------------|
|----------------------------------------|--------------------------------------------------------------|
|-------4-(4)----------------------------|------2--(2)--------------------------------------------------|
|-----4-------4-------------0-0------0---|------0--(0)--------------------------------0-----------------|
|-2--------------2-------0---------0-----|----0---------0------------------0------------------0---------|
|---------------------4----------5-------|--0----------------0-----0------------------------------------|


  Bm                    D/F#       Gsus2
               ~~~
   S  S  S  S  Q         S  E.      E    +E
|------------------------------------------------|
|-15----15-17-15---------------------------------|
|----16-----------------14s16------14---(14)\----|
|------------------------------------------------|
|------------------------------------------------|
|------------------------------------------------|
|
|  E     S  S +S  S S S  S  S  S S  S S   S   S
|------------------------------------------------|
|-----------3-(3)--------------------------------|
|------------------------------------------------|
|--------4--------4-4-0----------4------------0--|
|--2--------------------------------------0------|
|------------------------3s=4--4----4s5----------|
|
|  E     S  S +S  S E    S  S  S S  S S   E
|------------------------------------------------|
|------------------------------------------------|
|-----------4-(4)--------------------------------|
|--------4--------4------------0-0--------0------|
|--2----------------2-------0---------0----------|
|------------------------4----------5------------|


  D                      Gsus2   D                      Gsus2
  E.   S +S  E   S E S S S S E   E.   S +S  E   S E S S S S E
|------------------------------|--------------------------------|
|------3-(3)-------------------|------3-(3)---------------------|
|------------2-----2-----0-0-0-|------------2-----------0-0-0---|
|-0--------------0-------0-0-0-|-0--------------0-0-----0-0-0---|
|------------------------------|-0------------------------------|
|--------------------4s5-5-5-5-|-0------------------4s5-5-5-5---|
|
| E  S S +S  S E   E S S S S E   E  S S +S  S E   E S S S S S S
|------------------------------|--------------------------------|
|------3-(3)-------------------|------3-(3)---------------------|
|------------2-2---2-----0-0-0-|----0-------2-------------------|
|-0--0---------0---0-----0-0-0-|-0------------0---0-4s5-----0---|
|-0------------0---0-----------|-0------------------------0---0-|
|-0------------------4s5-5-5-5-|-0------------------4s5-5-------|
|
| E  S S +S  S S S E S S S S E   E  S S +S  S S S E S S S S E
|------------------------------|--------------------------------|
|------------------------------|--------------------------------|
|------------------------------|--------------------------------|
|------0-(0)-------0-----------|------0-(0)-------0-------------|
|----0-------0-----0-----0---0-|----0-------0-----0-----0---0---|
|-0------------0-0-0-4s5---0---|-0------------0-0-0-4s5---0-----|


  D                      Gsus2     D
  E.   S +S  E   S E S S S S E     W
|--------------------------------|------*|
|------3-(3)---------------------|-3----*|
|------------2-----------0-0-0---|-2----*|
|-0--------------0-0-----0-0-0---|-0----*|
|-0------------------------------|-0----*|
|-0------------------4s5-5-5-5---|-0----*|
|
| E.   S +S  E   S E S S S S S S   W
|--------------------------------|------*|
|------3-(3)---------------------|-3----*|
|------------2-------------------|-2----*|
|-0--------------0-0-------------|-0----*|
|-0----------------------0---0-0-|-0----*|
|-0------------------4s5---5-----|-0----*|
|
| E  S S +S  S S S E S S S S E     W
|--------------------------------|------*|
|--------------------------------|------*|
|--------------------------------|------*|
|------0-(0)-------0-------------|-0----*|
|----0-------0-----0-----0---0---|-0----*|
|-0------------0-0-0-4s5---0-----|-0----*|



Performance Notes
-----------------
Tunings: (Strings 6-1)

Gtr I, III, & IV: Db, Ab, Db, Gb, Bb, Eb

Gtr II: Db, Ab, Db, Gb, Bb, Eb (Note that this guitar is Nashville Tuned, meaning strings 6-3 are tuned up an octave)

Measure 33: Due to Power Tab's three stave limit, I was forced to tab out the song this way... The first bend is actually held out through this measure and the next while another guitar plays the line that is tabbed out...

Duration Legend
---------------
W - whole; H - half; Q - quarter; E - 8th; S - 16th; T - 32nd; X - 64th; a - acciaccatura
+ - note tied to previous; . - note dotted; .. - note double dotted
Uncapitalized letters represent notes that are staccato (1/2 duration)
Irregular groupings are notated above the duration line
Duration letters will always appear directly above the note/fret number it represents the
duration for.  Duration letters with no fret number below them represent rests.  Multi-
bar rests are notated in the form Wxn, where n is the number of bars to rest for.  Low
melody durations appear below the staff

Tablature Legend
----------------
 h   - hammer-on
 p   - pull-off
 b   - bend
 pb  - pre-bend
 r   - bend release (if no number after the r, then release immediately)
 /\  - slide into or out of (from/to "nowhere")
 s   - legato slide
 S   - shift slide
  - natural harmonic
[n]  - artificial harmonic
n(n) - tapped harmonic
 ~   - vibrato
 tr  - trill
 T   - tap
 TP  - trem. picking
 PM  - palm muting
\n/  - tremolo bar dip; n = amount to dip
 \n  - tremolo bar down
 n/  - tremolo bar up
/n\  - tremolo bar inverted dip
 =   - hold bend; also acts as connecting device for hammers/pulls
 <>  - volume swell (louder/softer)
 x   - on rhythm slash represents muted slash
 o   - on rhythm slash represents single note slash

Misc Legend
-----------
 |  - bar
||  - double bar
||o - repeat start
o|| - repeat end
*|  - double bar (ending)
 :  - bar (freetime)
 $  - Segno
 &  - Coda
Tempo markers -  = BPM(8/16=s8/s16), where s8 = swing 8ths, s16 = swing 16ths


Joe Satriani albums
2004 Is There Love in Space?
2002 Strange Beautiful Music
2000 Engines of Creation
1998 Crystal Planet
1995 Joe Satriani
1993 Time Machine
1992 The Extremist
1989 Flying in a Blue Dream
1987 Surfing With the Alien
1986 Not of This Earth
The Extremist tabs
01Friends tabbass tab
02The Extremist (Living on the Edge) tabbass tab
03War tabbass tab
04Cryin' tabbass tab
05Rubina's Blue Sky Happiness tabbass tab
06Summer Song tabbass tab
07Tears in the Rain tabbass tab
08Why tabbass tab
09Motorcycle Driver tabbass tab

 

1