Search tabs:
Browse artists: 0-9 | A | B | C | D | E | F | G | H | I | J | K | L | M | N | O | P | Q | R | S | T | U | V | W | X | Y | Z
/ Joe Satriani / The Extremist (1992) / Rubina's Blue Sky Happiness guitar tab

RUBINA'S BLUE SKY HAPPINESS
As recorded by Joe Satriani
From the 1993 Album THE EXTREMIST
Words and Music by Joe Satriani
Arranged by Joe Satriani

Gtr I (E A D G B E) - 'Acoustic'
Gtr II (E A D G B E) - 'Electric w/distortion'
Gtr III (E A D G B E) - 'Acoustic'
Gtr IV (E A D G B E) - 'Electric w/distortion'

  Moderately Q=96
 4/4
  Gtr I
  S S S S +S  S E E S S S E.
|-0h2---2-(2)-2-2-0-0-0-0h2--|
|-0---0-------0-0-0-0-0-0----|
|-4-----------4-4-4-----4----|
|----------------------------|
|----------------------------|
|----------------------------|


  S S S S S S E E S S S S E   S S S S S S E E S S E S S
|-2h4---4-------0---0-------|-4h5---5-------4-----0------|
|-0---0---0-0---0-0---0-0---|-0---0---0-0---0-0-0-0-0-0--|
|-2-----------2-2---------2-|-2-----------2-2-----2------|
|---------------------------|----------------------------|
|---------------------------|----------------------------|
|---------------------------|----------------------------|


  S S S S S S S S S E. +Q     S S S S S S E E S S S S S S
|-0h2---2---2-2-2-0h2--(2)--|-0h2---2---2-2-0-0-0-0h2-----|
|-0---0---0-0-0-0-0---------|-0---0---0-0-0-0-0-0-0---0-0-|
|-4---------4-4-4-4---------|-4---------4-4-4-----4-------|
|---------------------------|-----------------------------|
|---------------------------|-----------------------------|
|---------------------------|-----------------------------|


  S S S S S S E E S S S S E
|-2h4---4-------0---0--------|
|-0---0---0-0---0-0---0-0----|
|-2-----------2-2---------2--|
|----------------------------|
|----------------------------|
|----------------------------|


  S S S S S S E E S S E S S
|-4h5---5-------4-----0-----|
|-0---0---0-0---0-0-0-0-0-0-|
|-2-----------2-2-----2-----|
|---------------------------|
|---------------------------|
|---------------------------|


  S S S S +S  S S S S S S S +S  S S S   S E. S E. S E. +Q
|-0h2---2-(2)-2-2-2-0h2---2-(2)-2-2-2-|-0h2--0h2--0h2--(2)---||
|-0---0-------0-0-0-0---0-------0-0-0-|-0----0----0----------||
|-4-----------4-4-4-4-----------4-4-4-|-4----4----4----------||
|-------------------------------------|----------------------||
|-------------------------------------|----------------------||
|-------------------------------------|----------------------||


  E E E E S S a  E S S  a  E
|---------0-0------0-0-------|
|---------0-0------0-0-------|
|---4-6-9-----9s11-----11s13-|
|---2-4-6-----7s=9------9s11-|
|----------------------------|
|-0--------------------------|


  $
  E E E E S S  E S S E   E E E E S S  E S S  a  E
|---------0-0----0-0---|---------0-0----0-0--------|
|---------0-0----0-0---|---------0-0----0-0--------|
|---4-6-9-----11-----9-|---4-6-9-----11-----11s13--|
|---2-4-6------7-----6-|---2-4-6------9------9s11--|
|----------------------|---------------------------|
|-0--------------------|-0-------------------------|


  E  E  S  S  E E  E  S  S  S  S
|----0--0--0--0----0--0--0--0--0-|
|----0--0--0--0----0--0--0--0--0-|
|---11-11-11-11---11-11-11-11-11-|
|----9--9--9--9----9--9--9--9--9-|
|--------------------------------|
|-9-------------7----------------|


  E E E E S S a  E S S  a  E   E E E E  E  a  E  E E
|---------0-0------0-0-------|-----------------------|
|---------0-0------0-0-------|-----------------------|
|---4-6-9-----9s11-----11s13-|---4-6-9-11-11s13-11-9-|
|---2-4-6-----7s=9------9s11-|---2-4-6--7--7s=9--7-6-|
|----------------------------|-----------------------|
|-0--------------------------|-0---------------------|


  E E E E S S  E S S  E   E E S S S S E E S E S
|---------0-0----0-0----|---7-7-7-7-7-7-7-7-7-7-||
|---------0-0----0-0----|---0-0-0-0-0-0-0-0-0-0-||
|---4-6-9-----11-----13-|---9-9-9-9-9-9-9-9-9-9-||
|---2-4-6------9-----11-|---9-9-9-9-9-9-9-9-9-9-||
|-----------------------|-----------------------||
|-0---------------------|-9-----------7---------||


  Gtr II
                                  ~~~
  E E E  E +E    E Q     E E E E +H                E E E  E +E     Q      E
|----------------------|-------------------------|--------------------------|
|----------------------|-------------------------|-----------------7------9-|
|---6-8--9-(9)---8-6---|-------------------------|---6-8--9-(9)-------------|
|----------------------|-9-7-6-------------------|--------------------------|
|----------------------|-------9-(9)-------------|--------------------------|
|----------------------|-------------------------|--------------------------|
|
| Gtr I
| E E E  E  S  S E E E   E E E E +S  S E S S S S   E E E  E  S  S  E S S  E
|-----------0--0-------|-0---------------0-0-----|-----------0--0----0-0----|
|-----------0--0-------|-0-----0-(0)-0-0-0-0-0-0-|-----------0--0----0-0----|
|---6-8--9-------8-6---|-4-2-1-4-(4)-4-4-4-4-4-4-|---6-8--9-------11-----13-|
|---7-9-11-------9-7---|-6-4-2-4-(4)-4-4-4-4-4-4-|---7-9-11-------13-----14-|
|-0--------------------|-------2-(2)-2-2-----2-2-|-0------------------------|
|--------------------0-|-------------------------|--------------------------|


                ~~~~
   E  E  E  E  +H
|------------------------------------|
|--9-10--9--7--(7)-------------------|
|------------------------------------|
|------------------------------------|
|------------------------------------|
|------------------------------------|
|
|  E  E  E  E  +S   S  S  S  E  S  S
|-------------------0--0--0--0--0--0-|
|-------------------0--0--0--0--0--0-|
|-13-14-13-11-(11)-11-11-11-11-11-11-|
|-14-16-14-13-(13)-13-13-13-13-13-13-|
|------------------------------------|
|------------------------------------|


                                  ~~~
  E E E  E +E    E Q     E E E E +H
|----------------------|---------------------|
|----------------------|---------------------|
|---6-8--9-(9)---8-6---|---------------------|
|----------------------|-9-7-6---------------|
|----------------------|-------9-(9)---------|
|----------------------|---------------------|
|
| E E E  E  S  S E E E   E E E E +S  S E Q
|-----------0--0-------|-----------------0---|
|-----------0--0-------|-------0-(0)-0-0-0---|
|---6-8--9-------8-6---|-4-2-1-4-(4)-4-4-4---|
|---7-9-11-------9-7---|-6-4-2-4-(4)-4-4-4---|
|-0--------------------|-------2-(2)-2-2-----|
|--------------------0-|---------------------|


                                            ~~~
  S E   S +E    E +Q      a Q     S E.     +H.
|-------------------------------|----------------------------|
|-7s9---9-(9)---9-(9)-----9s5---|-5s7------(7)---------------|
|-------------------------------|----------------------------|
|-------------------------------|----------------------------|
|-------------------------------|----------------------------|
|-------------------------------|----------------------------|
|
| E   S S +S  S E  S  S E   E E   E    S S +S  S E E S S E E
|-----0-0-(0)-0----0--0-----0---|------2-2-(2)-2-2-2-2-2-2-2-|
|-----0-0-(0)-0----0--0-----0---|------0-0-(0)-0-0-0-0-0-0-0-|
|-----2-2-(2)-2----2--2-----2---|-4----4-4-(4)-4-4-4-4-4-4-4-|
|---------------------------2---|-4--------------------------|
|-----------------------0-----0-|-2--------------------------|
|-2-------------4---------------|----------------------------|


                   |--3---|
  S E   S +E     E S  S   S E Q
|----------------------------------|
|-7s9---9-(9)---10-9h10p==9s7-5----|
|----------------------------------|
|----------------------------------|
|----------------------------------|
|----------------------------------|
|
| E   S S +S  S  E S    S   E E E
|-----0-0-(0)-0----0----0-----0----|
|-----0-0-(0)-0----0----0-----0----|
|-----2-2-(2)-2----2----2-----2----|
|-----------------------------2----|
|---------------------------0---0--|
|-2--------------4-----------------|


                            To Coda
  S E.     +E    a E +H                 W
|------------------------------------|-------------------------------|
|-5s7------(7)-----------------------|-------------------------------|
|----------------8s4-(4)-------------|-------------------------------|
|------------------------------------|-------------------------------|
|------------------------------------|-[2]---------------------------|
|------------------------------------|-------------------------------|
|
| E    S S +S  S   E  S  E S +S  S E    S  E S S S S S E S S S S S S
|------2-2-(2)-2---2--0--2-2-(2)-----|--0--2-2-0h2-----2-------------|
|------0-0-(0)-0---0--0--0-0-(0)-0-0-|--0--0-0-0---0-0-0-------------|
|-4----4-4-(4)-4---4--4--4-4-(4)-4-4-|--4--4-4-4---0-0-4-------------|
|-4------------------------------4-4-|-------------4-4-------2-------|
|-2------------------------------2-2-|-------------------2-4---4-2---|
|------------------------------------|-----------------------------4-|


  Gtr I
  E E E E S S a  E S S  a  E   E E E E S S  E S S E
|---------0-0------0-0-------|---------0-0----0-0---|
|---------0-0------0-0-------|---------0-0----0-0---|
|---4-6-9-----9s11-----11s13-|---4-6-9-----11-----9-|
|---2-4-6-----7s=9------9s11-|---2-4-6------7-----6-|
|----------------------------|----------------------|
|-0--------------------------|-0--------------------|


  E E E E S S  E S S  a  E   E  E  S  S  S  S E S S E S S
|---------0-0----0-0-------|----0--0--0--0--0-0-0-0-0-0-0-|
|---------0-0----0-0-------|----0--0--0--0--0-0-0-0-0-0-0-|
|---4-6-9-----11-----11s13-|---11-11-11-11-11-9-9-9-8-8-8-|
|---2-4-6------9------9s11-|----9--9--9--9--9-9-9-9-9-9-9-|
|--------------------------|------------------0-----------|
|-0------------------------|-9----------------------7-----|


  E E E E S S a  E S S  a  E
|---------0-0------0-0--------|
|---------0-0------0-0--------|
|---4-6-9-----9s11-----11s13--|
|---2-4-6-----7s=9------9s11--|
|-----------------------------|
|-0---------------------------|


  Gtr II
  W                       W
|-----------------------|-----------------------|
|-----------------------|-----------------------|
|-----------------------|-----------------------|
|-----------------------|-----------------------|
|-----------------------|-----------------------|
|-----------------------|-----------------------|
|
| Gtr I
| E E E E  E  a  E  E E   E E E E S S  E S S  E
|-----------------------|---------0-0----0-0----|
|-----------------------|---------0-0----0-0----|
|---4-6-9-11-11s13-11-9-|---4-6-9-----11-----13-|
|---2-4-6--7--7s=9--7-6-|---2-4-6------9-----11-|
|-----------------------|-----------------------|
|-0---------------------|-0---------------------|


  S  E.     +Q        Q     +S  +S  E
|--------------------------------------|
|--------------------------------------|
|-9s11-----(11)p======9-----(9)-(9)s4--|
|--------------------------------------|
|--------------------------------------|
|--------------------------------------|
|
| E      E   S   S  E E S S +S   S  E
|--------0---0---0--0-0-0-0-(0)--0--0--|
|--------0---0---0--0-0-0-0-(0)--0--0--|
|-------11--11--11-11-9-9-9-(9)--9--9--|
|--------9---9---9--9-9-9-9-(9)--9--9--|
|--------------------------------------|
|-7------------------------------------|


  S E.     +H.
|------------------------------|
|------------------------------|
|------------------------------|
|-7s9------(9)-----------------|
|------------------------------|
|------------------------------|
|
| E    S S +S  S E E S S +E  E
|-0----0-0-(0)-0-0-0-0-0-(0)-0-|
|-0----0-0-(0)-0-0-0-0-0-(0)-0-|
|-8----8-8-(8)-8-8-8-8-8-(8)-8-|
|-9----9-9-(9)-9-9-9-9-9-(9)-9-|
|------------------------------|
|-7----------------------------|


    H                     Q     +S  +S  S S   Q.       +S  S H
|-------------------------------------------|----------------------||
|-------------------------------------------|----------------------||
|-/11s====================9-----(9)-(9)S4s2s|=4--------(4)s2s4-----||
|-------------------------------------------|----------------------||
|-------------------------------------------|----------------------||
|-------------------------------------------|----------------------||
|
|   E  S  S  +S   S  S  S E S S +S   S  E     E  E S S  S  S Q  Q
|------0--0--(0)--0--0--0-0-0-0-(0)--0--0---|----------------0--0--||
|------0--0--(0)--0--0--0-0-0-0-(0)--0--0---|-0--0-0-0--0--0-0--0--||
|-----11-11-(11)-11-11-11-9-9-9-(9)--9--9---|-8--8-8-8--8--8-8--8--||
|------9--9--(9)--9--9--9-9-9-9-(9)--9--9---|-9--9-9-9--9--9-9--9--||
|-------------------------------------------|----------------------||
|---7---------------------------------------|-7--------------------||


  Gtr II
                  ~~~~~~~
  Q      E     a  E  +Q     +S   S E
|-------------10h12-(12)---(12)p10---|
|------------------------------------|
|------------------------------------|
|------------------------------------|
|------------------------------------|
|------------------------------------|
|
| Gtr III
| E S S +S  S  a  E   E  E   E     E
|------------------------------------|
|-----5-(5)-5---------7------3h====5-|
|------------------------------------|
|---5----------5s=7------4--(4)s===5-|
|-3----------------------------------|
|------------------------------------|


           ~~~~~~~
  E.    a  S  +E       S. T E  a  S S  a  E  S     +S
|------10h12-(12)-----12p10---10h12---10h12-12b14-(12)-|
|------------------------------------------------------|
|------------------------------------------------------|
|------------------------------------------------------|
|------------------------------------------------------|
|------------------------------------------------------|
|
| E  S     S  +S  S a  E    E     E       E  E
|------------------------------------------------------|
|----------5--(5)-5---------7-------------3------------|
|------------------------------------------------------|
|----5--------------5s=7----------4--------------------|
|-3----------------------------------------------------|
|------------------------------------------------------|


   ~~~                   ~~~~~~~
                   |--3--|
   Q.              S  S  S  +Q     +E  E
|-12--------------10---------------------|
|--------------------12-10-(10)---(10)\--|
|----------------------------------------|
|----------------------------------------|
|----------------------------------------|
|----------------------------------------|
|
|  E  S S +S  S a  E         E  E   E  E
|----------------------------------------|
|-------7-(7)-7--------------8------5S=7-|
|----------------------------------------|
|-----7---------7s=9------------5--(5)s7-|
|--5-------------------------------------|
|----------------------------------------|


                  |--3--|                    |-3-|
  E  S  T  T T T +T   T T S T  T T T  S T T  T T T T T T T T T T T
|---12p11p10p8s7-(7)-------------7h8h10p8p7---------------------------|
|--------------------10p8p7h8h10------------10p8p6s5h7h8p7p5----------|
|------------------------------------------------------------7p5p4h===|
|---------------------------------------------------------------------|
|---------------------------------------------------------------------|
|---------------------------------------------------------------------|
|
| E  S  S    E            E      E      E          Q
|---------------------------------------------------------------------|
|-------7------------------------------------------3------------------|
|---------------------------------------0-----------------------------|
|----7---------------------------4------------------------------------|
|-5-----------------------2-------------------------------------------|
|---------------------------------------------------------------------|


  |----6----|               |----6----|     |--3--|
  T T T T T T S S  S.   T   T T T T T T +S  S S   S S  S  S E
|-------------------------------------------------------------|
|-------------5-----------------------------------------------|
|-5h7p5p4h5h7---7---------------------4-(4)-------------------|
|------------------4----5---7-5-4-5-7-------7-5---------------|
|-------------------------------------------------7s5s=7s=5s3s|
|-------------------------------------------------------------|
|
| E           S S +S  S   a E            E      E      E    E
|-------------------------------------------------------------|
|---------------5-(5)-5------------------7-------------3h===5-|
|-------------------------------------------------------------|
|-------------5-----------5s7-------------------4-----(4)s==5-|
|-3-----------------------------------------------------------|
|-------------------------------------------------------------|


    ~~
  S E.      Q        S T T S. T T T E.     Q.             +E   H
|----------------------------------------|---------------------------------|
|----------------------------------------|---------------------------------|
|----------------------------------------|---------------------------------|
|----------------------------------------|---------------------------------|
|-5h7------------------2h3h5--3-3h5h7----|-0--------------(0)\-------------|
|----------------------------------------|---------------------------------|
|
| E    S S +S  S a E E     E    E      E   E  S S +S  S a  E   E E  E  E
|----------------------------------------|---------------------------------|
|--------5-(5)-5-----7----------3--------|------7-(7)-7--------8----5S=7---|
|----------------------------------------|---------------------------------|
|------5---------5s7-------4-------------|----7---------7s=9-----5-(5)s7---|
|-3--------------------------------------|-5-------------------------------|
|----------------------------------------|---------------------------------|


                                      ~~
                                                                              |---3----|
  E  a a S  S S S S  S E  E E.S   +S  E.     +S  S   E E  a  a  S  S  E      +S   +S   S
|--------7-10-8-7---------------|------------------------------14-15-15b17==(15)r(15)p14-|
|------8----------8s10s8s12s8p7-|-(7)s5------(5)h7----------15---------------------------|
|---11--------------------------|------------------------16------------------------------|
|-------------------------------|--------------------------------------------------------|
|-------------------------------|--------------------------------------------------------|
|-------------------------------|--------------------------------------------------------|
|
| E      S  S E   E    E  E Q      E     S S +S  S a E E        E     E       E
|-------------------------------|--------------------------------------------------------|
|-----------7---------------3---|----------5-(5)-5-----7--------------3h======5----------|
|-------------------------0-----|--------------------------------------------------------|
|--------7-------------4--------|--------5---------5s7----------4----(4)s=====5----------|
|-5---------------2-------------|--3-----------------------------------------------------|
|-------------------------------|--------------------------------------------------------|


           ~~~~
   Q      +E      E E  S  S  S S  S  S
|----------------------------------------|
|-15-----(15)---------15s17s15-----------|
|--------------------------------14s16s==|
|----------------------------------------|
|----------------------------------------|
|----------------------------------------|
|
|  E S S  +S  S a E E  E     E    E
|----------------------------------------|
|------5--(5)-5-----7--------3-----------|
|----------------------------------------|
|----5----------5s7----4-----------------|
|--3-------------------------------------|
|----------------------------------------|


   ~~~~~~~~~~~
   Q      +S  E      T  T  S  S  S  S  S   S  S  T  T
|-----------------------------------------------------|
|-------------------17p15s12-13-15-13p12-----12-------|
|-14-----(14)-----------------------------14----14p12s|
|-----------------------------------------------------|
|-----------------------------------------------------|
|-----------------------------------------------------|
|
|  E S S  +S  S a E        E     E     E      E
|-----------------------------------------------------|
|------7--(7)-7------------8-----------5S=====7-------|
|-----------------------------------------------------|
|----7----------7s9--------------5----(5)s====7-------|
|--5--------------------------------------------------|
|-----------------------------------------------------|


  S  S  S  S S  S  S S  S  S  S  S S  T T  S S
|----------------------------------------------|
|----------------------------------------------|
|-9-11-12-11p9---------------------------------|
|--------------12-10p9-12-10-------9h10p9----9-|
|----------------------------10-12--------12---|
|----------------------------------------------|
|
| E     S  S E     E    E     E    Q
|----------------------------------------------|
|----------7-----------------------3-----------|
|-----------------------------0----------------|
|-------7---------------4----------------------|
|-5----------------2---------------------------|
|----------------------------------------------|


      ~~~~~~~~~~~~~~~~~~~~~~~
   S  E.      +Q         +E   a  Q      a E
|-------------------------------------------|
|-------------------------------------------|
|-------------------------------------------|
|-------------------------------------------|
|-10-12------(12)-------(12)-12s17-----17s7-|
|-------------------------------------------|
|
|  E     S S  +S  S a E   E      E  E     E
|-------------------------------------------|
|----------5--(5)-5-------7---------3h====5-|
|-------------------------------------------|
|--------5----------5s7----------4-(4)s===5-|
|--3----------------------------------------|
|-------------------------------------------|


   ~~~
                           |-3-|         |-3-|
  +H                E.   S T T T T T T T T T T
|----------------------------------------------|
|----------------------------------------------|
|----------------------------------------------|
|----------------------------------------------|
|-(7)--------------------5-------2h3h5p3p2h3h5-|
|--------------------------2h3h5---------------|
|
|  E  S S +S  S a E E  E   E         E
|----------------------------------------------|
|-------5-(5)-5-----7------3-------------------|
|----------------------------------------------|
|-----5---------5s7----4-----------------------|
|--3-------------------------------------------|
|----------------------------------------------|


              |-3-|       |-3-|                     |-3-|  |----6-----|
  T T T T T T T T T  T  T T T T   T T T T S T T T T T T T  T  T T T T T E
|-------------------------------------------------------------------------|
|-------------------------------------------------------------------------|
|--------------------5h=7h9p7p5s==4h5h7p5p4-------------------------------|
|-2h4h5s7p5p4s5h7h9-------------------------4h5h7p5p4h5h7s=9p=7p5---------|
|-----------------------------------------------------------------9p7p5s3-|
|-------------------------------------------------------------------------|
|
| E       S   S     +S    S     a E       E     E          E            E
|-------------------------------------------------------------------------|
|-------------7-----(7)---7---------------8----------------5S===========7-|
|-------------------------------------------------------------------------|
|---------7---------------------7s9-------------5---------(5)s==========7-|
|-5-----------------------------------------------------------------------|
|-------------------------------------------------------------------------|


   S   E.      +Q        Q    Q
|----------------------------------||
|----------------------------------||
|----------------------------------||
|----------------------------------||
|-[3]h[5]-----([5])----------------||
|-----------------------12\--12\---||
|
|  E      S S   S   S E  Q    Q
|----------------------------------||
|----------------------------------||
|----------------------------------||
|-----------7-------7----7----7----||
|--5------5-----5-----5--5----5----||
|----------------------------------||


  Gtr II
  W                                +W
|--------------------------------|------------------------------------|
|--------------------------------|------------------------------------|
|--------------------------------|------------------------------------|
|--------------------------------|------------------------------------|
|--------------------------------|------------------------------------|
|-0------------------------------|-(0)--------------------------------|
|
| Gtr IV
|                                              ~~~
| E.   S +S  S E E E   +S   S  E    S  E.      H           S   E    S
|--------------------------------|------------------------------------|
|-5----5-(5)-5-5-7s9---(9)-10s12-|-12s14------14----------12s=10---12-|
|--------------------------------|------------------------------------|
|--------------------------------|------------------------------------|
|--------------------------------|------------------------------------|
|--------------------------------|------------------------------------|
|
| Gtr I
| E  S S +E    E E S S +S   S  E    S  S  S S +E  E E S S +S   S E
|-0--0-0-(0)---0-0-0-0-(0)--0--0-|--0-----0-0-(0)-0-0-0-0-(0)--0-0----|
|-0--0-0-(0)---0-0-0-0-(0)--0--0-|--0-----0-0-(0)-0-0-0-0-(0)--0-0----|
|-9--9-9-(9)---9-9-9-9-(9)--9--9-|--9-----9-9-(9)-9-9-9-9-(9)--9-9----|
|-9--9-9-(9)---9-9-9-9-(9)--9--9-|--7h=9--9-9-(9)-9-9-9-9-(9)--9-9----|
|-7--7-7-(7)---7-7-7-7-(7)--7--7-|--7-----7-7-(7)-7-7-7-7-(7)--7-7----|
|-0--0-0-(0)---0-0-0-0-(0)--0--0-|--0-----0-0-(0)-0-0-0-0-(0)--0-0----|


  +W
|-----------------------------------------|
|-----------------------------------------|
|-----------------------------------------|
|-----------------------------------------|
|-----------------------------------------|
|-(0)-------------------------------------|
|
|                           ~~~
|  S  E.      +S   a  E.    E.    S  E  E
|-----------------------------------------|
|-12s14------(14)-14s17----17----14s12s10-|
|-----------------------------------------|
|-----------------------------------------|
|-----------------------------------------|
|-----------------------------------------|
|
|  S  S  S S  +E         E  S  E  S  E  E
|--0-----0-0--(0)--------0--0--0--0--0--0-|
|--0-----0-0--(0)--------0--0--0--0--0--0-|
|--9-----9-9--(9)--------9--9--9--9--9--9-|
|--7h=9--9-9--(9)--------9--9--9--9--9--9-|
|--7-----7-7--(7)--------7--7--7--7--7--7-|
|--0-----0-0--(0)--------0--0--0--0--0--0-|


  +Q.              S  S  S  S  S  S  S  S  S  S
|-----------------17p16-------------------------|
|-----------------------17----------------------|
|--------------------------16s14----------------|
|--------------------------------18-17----------|
|--------------------------------------14s12----|
|-(0)----------------------------------------16-|
|
|  S  E.      +H.
|-----------------------------------------------|
|-10h12------(12)-------------------------------|
|-----------------------------------------------|
|-----------------------------------------------|
|-----------------------------------------------|
|-----------------------------------------------|
|
|  E     S S  +E   E     E     S  S  S  S  S  S
|--0-----0-0--(0)--0-----0----------------------|
|--0-----0-0--(0)--0-----0----------------------|
|--9-----9-9--(9)--9-----9----------------------|
|--9-----9-9--(9)--9-----9-----------2----------|
|--7-----7-7--(7)--7-----7-----2--4-----4--2----|
|--0-----0-0--(0)--0-----0--------------------4-|


                 D.S. al Coda
    >
    W
|-------------------------------||
|-------------------------------||
|-------------------------------||
|-------------------------------||
|-------------------------------||
|--12---------------------------||
|
|  +E  E Q   H
|-------------------------------||
|-(12)--------------------------||
|-------------------------------||
|-------------------------------||
|-------------------------------||
|-------------------------------||
|
|   E  E E E S S a  E S S  a  E
|------------0-0------0-0-------||
|------------0-0------0-0-------||
|------4-6-9-----9s11-----11s13-||
|------2-4-6-----7s=9------9s11-||
|-------------------------------||
|---0---------------------------||


  &
  Gtr II
                                          ~~~
  S E   S +E    E +E    E Q     S E.     +H.
|-----------------------------|----------------------------|
|-7s9---9-(9)---9-(9)s==5-5---|-5s7------(7)---------------|
|-----------------------------|----------------------------|
|-----------------------------|----------------------------|
|-----------------------------|----------------------------|
|-----------------------------|----------------------------|
|
| Gtr I
| E   S S +S  S E  S  S E E E   E    S S +S  S E E S S E E
|-----0-0-(0)-0----0--0---0---|------2-2-(2)-2-2-2-2-2-2-2-|
|-----0-0-(0)-0----0--0---0---|------0-0-(0)-0-0-0-0-0-0-0-|
|-----2-2-(2)-2----2--2---2---|-4----4-4-(4)-4-4-4-4-4-4-4-|
|-------------------------2---|-4--------------------------|
|-----------------------0---0-|-2--------------------------|
|-2-------------4-------------|----------------------------|


                   |--3---|
  S E   S +E     E S  S   S E Q     S  E.      +E.      S Q.           +E
|---------------------------------|-----------------------------------------|
|-7s9---9-(9)---10-9h10p==9s7-----|-----------------------------------------|
|-----------------------------9---|-9s11------(11)s====14s4------------(4)/-|
|---------------------------------|-----------------------------------------|
|---------------------------------|-----------------------------------------|
|---------------------------------|-----------------------------------------|
|
| E   S S +S  S  E S    S   E E E   E     S S  +S  S E    S  E S +S  S  E
|-----0-0-(0)-0----0----0-----0---|-------2-2--(2)-2-2----0--2-2-(2)--------|
|-----0-0-(0)-0----0----0-----0---|-------0-0--(0)-0-0----0--0-0-(0)-0--0---|
|-----2-2-(2)-2----2----2-----2---|-4-----4-4--(4)-4-4----4--4-4-(4)-4--4---|
|-----------------------------2---|-4--------------------------------4--4---|
|---------------------------0---0-|-2--------------------------------2--2---|
|-2--------------4----------------|-----------------------------------------|


   W                           W
|---------------------------||-----------------------------|
|---------------------------||-----------------------------|
|---------------------------||-----------------------------|
|---------------------------||-----------------------------|
|-[2]-----------------------||-----------------------------|
|---------------------------||-0---------------------------|
|
|  S  E S S S S S S E. +Q      S S S S +S  S E E S S E S S
|--0--2-2-0h2-----0h2--(2)--||-0h2---2-(2)-----0-----2-----|
|--0--0-0-0---0-0-0---------||-0---0-------0-0-0-0-0-0-0-0-|
|--4--4-4-4---4-4-4---------||-4---------------4-----4-----|
|-------------4-4-----------||-----------------------------|
|---------------------------||-----------------------------|
|---------------------------||-----------------------------|


  +W                             +W
|------------------------------|------------------------------|
|------------------------------|------------------------------|
|------------------------------|------------------------------|
|------------------------------|------------------------------|
|------------------------------|------------------------------|
|-(0)--------------------------|-(0)--------------------------|
|
|  S S S S +S  S E E S S S S E    S S S S +S  S E E S S E S S
|--2h4---4-(4)-----0---0-------|--4h5---5-(5)-----4-----0-----|
|--0---0-------0---0-0---0-0---|--0---0-0-(0)-0---0-0-0-0-0-0-|
|--2-------------2-2---------2-|--2-------------2-2-----2-----|
|------------------------------|------------------------------|
|------------------------------|------------------------------|
|------------------------------|------------------------------|


  +W
|--------------------------------------|
|--------------------------------------|
|--------------------------------------|
|--------------------------------------|
|--------------------------------------|
|-(0)----------------------------------|
|
|  S S S S +S  S S S S S S S +S  S E
|--0h2---2-(2)-2-2-2-0h2---2-(2)-2-2---|
|--0---0-------0-0-0-0---0-------0-0---|
|--4-----------------4-----------------|
|--------------------------------------|
|--------------------------------------|
|--------------------------------------|


   >
  +W                             W
|------------------------------|-----------------------------|
|------------------------------|-----------------------------|
|------------------------------|-----------------------------|
|------------------------------|-----------------------------|
|------------------------------|-----------------------------|
|-(0)--------------------------|-----------------------------|
|
|  S S S S +S  S E E S S E S S   S S S S +S  S E E S S S S E
|--0h2---2-(2)-----0-----2-----|-2h4---4-(4)-----0---0-------|
|--0---0-------0-0-0-0-0-0-0-0-|-0---0-------0---0-0---0-0---|
|--4---------------4-----4-----|-2-------------2-2---------2-|
|------------------------------|-----------------------------|
|------------------------------|-----------------------------|
|------------------------------|-----------------------------|


  W                             H                 E   E     Q
|-----------------------------|------------------------------------|
|-----------------------------|------------------------------------|
|-----------------------------|------------------------------------|
|-----------------------------|------------------------------------|
|-----------------------------|------------------------------------|
|-----------------------------|-----------------------x/----7\-----|
|
| S S S S +S  S E E S S E S S   S S S S +S  S S S S S S  S +S  S E
|-4h5---5-(5)-----4-----0-----|-0h2---2-(2)-2-2-2-0h2----2-(2)-2-2-|
|-0---0-0-(0)-0---0-0-0-0-0-0-|-0---0-------0-0-0-0---0--------0-0-|
|-2-------------2-2-----2-----|-4-----------------4----------------|
|-----------------------------|------------------------------------|
|-----------------------------|------------------------------------|
|-----------------------------|------------------------------------|


                                                                       ~~
  H               +E   E    E  E      S  E    S  +S   S  E  S  E.      Q
|----------------------------------|-----------------------------------------|
|----------------------------------|-----------------------------------------|
|----------------------------------|-----------------------------------------|
|----------------------------------|-----------------------------------------|
|-----------------------------11---|-11h12---11-(11)-------------------------|
|-0---------------(0)-12---14------|-----------------14s12-12s14------14-----|
|
| S S S S +S  S E  E   S S  E  S S    S  S S  S  +S   S  E  E     S S  S S E
|-0h2---2-(2)------0--------2------|--2h=4----4--(4)--------0-------0--------|
|-0---0-------0-0--0---0-0--0--0-0-|--0----0----------0-----0-----0----0-0---|
|-4----------------4--------4------|--2------------------2--2--------------2-|
|----------------------------------|-----------------------------------------|
|----------------------------------|-----------------------------------------|
|----------------------------------|-----------------------------------------|


    ~~~~~~~~
   +E    a  E    E     E  S  E    S  +S  S E
|----------------------------------------------|
|----------------------------------------------|
|----------------------------------------------|
|----------------------------------------------|
|----------------9----11-11h12---11-(11)-9s7---|
|-(14)--14s12----------------------------------|
|
|   S S     S S +S  S  E  E    S  S   E    S S
|---4h5-------5-(5)-------4-----------0--------|
|---0-------0-0-(0)-0-----0----0--0---0----0-0-|
|---2------------------2--2-----------2--------|
|----------------------------------------------|
|----------------------------------------------|
|----------------------------------------------|


                       ~~~
  a S E   S  Q        +Q        Q
|---------------------------------------|
|---------------------------------------|
|---------------------------------------|
|---------------------------------------|
|-7s9s7---7--7--------(7)---------------|
|-------------------------------7\------|
|
|   S S S S +S  S S S  S S S S +S  S E
|---0h2---2-(2)-2-2-2--0h2---2-(2)-2-2--|
|---0---0-------0-0-0--0---0-------0-0--|
|---4------------------4----------------|
|---------------------------------------|
|---------------------------------------|
|---------------------------------------|


                                                                 ~~~
  H               +E  E   E  E      S  E    S  +S  S E S E.     +Q
|--------------------------------|--------------------------------------|
|--------------------------------|--------------------------------------|
|--------------------------------|--------------------------------------|
|--------------------------------|--------------------------------------|
|---------------------7s==9-11---|-11h12---11-(11)-9s7-7s9------(9)-----|
|-0---------------(0)------------|--------------------------------------|
|
| S S S S +S  S E  E  S S E  S S    S  S S  S  +S  S E E    S S  S  S E
|-0h2---2-(2)------0------2------|--2h=4----4--(4)-----0------0---------|
|-0---0-------0-0--0--0-0-0--0-0-|--0----0---------0---0----0----0--0---|
|-4----------------4------4------|--2----------------2-2--------------2-|
|--------------------------------|--------------------------------------|
|--------------------------------|--------------------------------------|
|--------------------------------|--------------------------------------|


   ~~~~~~~
  +E   a E    E     E  S  E    S  +S  S E
|-------------------------------------------|
|-------------------------------------------|
|-------------------------------------------|
|-------------------------------------------|
|-(9)--9s7----9----11-11h12---11-(11)-9s7---|
|-------------------------------------------|
|
|  S S   S S +S  S  E  E    S  S   E    S S
|--4h5-----5-(5)-------4-----------0--------|
|--0-----0-0-(0)-0-----0----0--0---0----0-0-|
|--2----------------2--2-----------2--------|
|-------------------------------------------|
|-------------------------------------------|
|-------------------------------------------|


              ~~~
  a S E.      H                 Q
|---------------------------------------|
|---------------------------------------|
|---------------------------------------|
|---------------------------------------|
|-7s9s7-------7-------------------------|
|-------------------------------7\------|
|
|   S S  S S +S  S S S S S S S +S  S E
|---0h2----2-(2)-2-2-2-0h2---2-(2)-2-2--|
|---0----0-------0-0-0-0---0-------0-0--|
|---4------------------4----------------|
|---------------------------------------|
|---------------------------------------|
|---------------------------------------|


                  ~~                                  ~~~~~~~~~~~~
  Q.            E Q.       S S   S  E.      S  S E S  E.      +Q
|------------------------------|--------------------------------------|
|------------------------------|--------------------------------------|
|------------------------------|--------------------------------------|
|---------------9-9--------7h9-|-9s11-------9s=7-9-9s11------(11)-----|
|------------------------------|--------------------------------------|
|-0----------------------------|--------------------------------------|
|
| S S S S +S  S E E  S S E S S   S  S  S S +S  S E E     S S   S  S E
|-0h2---2-(2)-----0------2-----|-2h=4----4-(4)-----0-------0----------|
|-0---0-------0-0-0--0-0-0-0-0-|-0-----0-------0---0-----0-----0--0---|
|-4---------------4------4-----|-2---------------2-2----------------2-|
|------------------------------|--------------------------------------|
|------------------------------|--------------------------------------|
|------------------------------|--------------------------------------|


    ~~~~
             |----3----|        |---3---|
   +Q        E    E    E E E   +E  E    E
|-------------------------------------------|
|-------------------------------------------|
|------------------------8-9---(9)-8--------|
|-(11)------11----9---11---------------11---|
|-------------------------------------------|
|-------------------------------------------|
|
|   S S S S +S  S   E    E S S  E    S    S
|---4h5---5-(5)----------4------0-----------|
|---0---0-0-(0)-0--------0-0-0--0----0----0-|
|---2---------------2----2------2-----------|
|-------------------------------------------|
|-------------------------------------------|
|-------------------------------------------|


  ~~~~~~~~~~~~~~~~
  E.    S +E    E   +E    S S  S  S  S      +S
|------------------------------------------------|
|------------------------------------------------|
|------------------------11---11----11b13==(11)r=|
|-9-----9-(9)---9---(9)-----9-----9--------------|
|------------------------------------------------|
|------------------------------------------------|
|
| S S S S +S  S S S  S S  S S +S  S  E
|-0h2---2-(2)-2-2-2--0h2----2-(2)-2--2-----------|
|-0---0-------0-0-0--0----0-------0--0-----------|
|-4------------------4---------------------------|
|------------------------------------------------|
|------------------------------------------------|
|------------------------------------------------|


    ~~~~~                                                ~~~~~~~~~~~~
   +Q.             E Q     E  S S   S  E   S +S   S E S  E.      +Q
|---------------------------------|--------------------------------------|
|-------------------------------9-|-9h10---9-(9)-------------------------|
|-(11)p============9-9-----9-11---|--------------11s9-9s11------(11)-----|
|---------------------------------|--------------------------------------|
|---------------------------------|--------------------------------------|
|---------------------------------|--------------------------------------|
|
|   S  S S S +S  S E E S S E  S S   S  S S S +S   S E E     S S   S  S E
|---0h=2---2-(2)-----0-----2------|-2h=4---4-(4)------0-------0----------|
|---0----0-------0-0-0-0-0-0--0-0-|-0----0--------0---0-----0-----0--0---|
|---4----------------4-----4------|-2---------------2-2----------------2-|
|---------------------------------|--------------------------------------|
|---------------------------------|--------------------------------------|
|---------------------------------|--------------------------------------|


    ~~~~
   +E   E    E    E S  E   S +S   S E
|---------------------------------------|
|-----------------9-9h10---9-(9)--------|
|-(11)--9---11-------------------11s9---|
|---------------------------------------|
|---------------------------------------|
|---------------------------------------|
|
|   S S S S +S  S E E    S S  E     S S
|---4h5---5-(5)-----4---------0---------|
|---0---0-0-(0)-0---0----0-0--0-----0-0-|
|---2-------------2-2---------2---------|
|---------------------------------------|
|---------------------------------------|
|---------------------------------------|


  a  S E   S +E     a E   +S a E.      Q
|---------------------------------------------|
|---------------------------------------------|
|-9s11s9---9-(9)------------------------------|
|------------------11s9---(9)-----------------|
|----------------------------9s7--------------|
|--------------------------------------7\-----|
|
|    S S S S +S  S    S S  S   S  S S +S  S E
|----0h2---2-(2)-2----2-2--0h==2----2-(2)-2-2-|
|----0---0-------0----0-0--0------0-------0-0-|
|----4---------------------4------------------|
|---------------------------------------------|
|---------------------------------------------|
|---------------------------------------------|


  H               +E   E    +S   S  S  S
|----------------------------------------|
|----------------------------------12-12-|
|---------------------13---(13)-14-------|
|----------------------------------------|
|----------------------------------------|
|-0---------------(0)--------------------|
|
| S S S S +S  S E  E   S S   E      S  S
|-0h2---2-(2)------0---------2-----------|
|-0---0-------0-0--0---0-0---0------0--0-|
|-4----------------4---------4-----------|
|----------------------------------------|
|----------------------------------------|
|----------------------------------------|


                                             ~~
   S  E.      +Q       +S       +S   +S   S  Q
|--------------------------------------------------|
|-12h14------(14)-----(14)b17==(14)r(14)-12-14-----|
|--------------------------------------------------|
|--------------------------------------------------|
|--------------------------------------------------|
|--------------------------------------------------|
|
|  S  S  S S  +S  S E   E             S   S  S S E
|--2h=4----4--(4)-------0-----------------0--------|
|--0-----0--------0-----0-------------0------0-0---|
|--2----------------2---2------------------------2-|
|--------------------------------------------------|
|--------------------------------------------------|
|--------------------------------------------------|


    ~~~~
   +Q.             E  E.    S  +E   E
|--------------------------12-(12)------|
|-(14)------------14-16------------12---|
|---------------------------------------|
|---------------------------------------|
|---------------------------------------|
|---------------------------------------|
|
|   S S S S +S  S  E  E  S  S   E   S S
|---4h5---5-(5)-------4---------0-------|
|---0---0-0-(0)-0-----0--0--0---0---0-0-|
|---2--------------2--2---------2-------|
|---------------------------------------|
|---------------------------------------|
|---------------------------------------|


    ~~~~
   +H                  +E    a  E    a  E..      T
|---------------------------12h14---12h14p======12h=|
|-(12)----------------(12)--------------------------|
|---------------------------------------------------|
|---------------------------------------------------|
|---------------------------------------------------|
|---------------------------------------------------|
|
|   S S S S +S  S S S   S S     S S    +S   S E
|---0h2---2-(2)-2-2-2---0h2-------2----(2)--2-2-----|
|---0---0-------0-0-0---0-------0-----------0-0-----|
|---4-------------------4---------------------------|
|---------------------------------------------------|
|---------------------------------------------------|
|---------------------------------------------------|


                             ~~~~
   E.     S      +S   S  E  +Q       E  S  S
|-14-----14pb16r(14)p12-14-(14)-----12-14s16-|
|--------------------------------------------|
|--------------------------------------------|
|--------------------------------------------|
|--------------------------------------------|
|--------------------------------------------|
|
|  S S S  S      +S   S  E   E  S S  E  S  S
|--0h2----2------(2)---------0-------2-------|
|--0---0--------------0--0---0--0-0--0--0--0-|
|--4-------------------------4-------4-------|
|--------------------------------------------|
|--------------------------------------------|
|--------------------------------------------|


                                ~~
   S     +E     S  +E     S  S  H
|-16b17-(16)---16-(16)---14----14-----------|
|---------------------------17--------------|
|-------------------------------------------|
|-------------------------------------------|
|-------------------------------------------|
|-------------------------------------------|
|
|  S      S  S  S  +S  S  E     E S S S S E
|--2h=====4-----4--(4)----------0---0-------|
|--0---------0---------0--------0-0---0-0---|
|--2----------------------2-----2---------2-|
|-------------------------------------------|
|-------------------------------------------|
|-------------------------------------------|


    ~~~~
                                                                            |-----3------|              |-----3------|
   +S  S  S  T      +T   +S   T  T  T  T      +T   +T       +T   +T   T  T  S  S        +S   +S   T  T  S  S        +S
|-(14)---14-16b17==(16)r(16)-14----14-16b17==(16)r(16)b17==(16)r(16)p14----14-16b17====(16)r(16)p14----14-16b17====(16)r|
|-----17------------------------17--------------------------------------17--------------------------17------------------|
|-----------------------------------------------------------------------------------------------------------------------|
|-----------------------------------------------------------------------------------------------------------------------|
|-----------------------------------------------------------------------------------------------------------------------|
|-----------------------------------------------------------------------------------------------------------------------|
|
|   S  S  S  S           +S   S     E                        E              S        S        E         S        S
|---4h=5-----5-----------(5)---------------------------------4--------------------------------0-------------------------|
|---0-----0--0-----------(0)--0------------------------------0--------------0--------0--------0---------0--------0------|
|---2-------------------------------2------------------------2--------------------------------2-------------------------|
|-----------------------------------------------------------------------------------------------------------------------|
|-----------------------------------------------------------------------------------------------------------------------|
|-----------------------------------------------------------------------------------------------------------------------|



   +T       +T   +T   T  S  T      +T   +T       +T   +T   T  S  T      +T   +T       +T   +T   T  T  S.    a  E     E
|-(16)b17==(16)r(16)p14----16b17==(16)r(16)b17==(16)r(16)p14----16b17==(16)r(16)b17==(16)r(16)-14----14----17s19----19-|
|-----------------------17-----------------------------------17-----------------------------------17-------------------|
|----------------------------------------------------------------------------------------------------------------------|
|----------------------------------------------------------------------------------------------------------------------|
|----------------------------------------------------------------------------------------------------------------------|
|----------------------------------------------------------------------------------------------------------------------|
|
|   S             S      S  S           +S             S      S  S            S             S      S     S    +S  S  E
|---0h============2---------2-----------(2)------------2------2--2------------0h============2------------2----(2)-2--2-|
|---0--------------------0-----------------------------0------0--0------------0--------------------0--------------0--0-|
|---4-------------------------------------------------------------------------4----------------------------------------|
|----------------------------------------------------------------------------------------------------------------------|
|----------------------------------------------------------------------------------------------------------------------|
|----------------------------------------------------------------------------------------------------------------------|


   ~~~~~~~~~~~~~~~~~~~
   E.     S  +E     E  E.    S     +E   E
|-19-----19-(19)---19-19----19b21-(19)-19b21---|
|----------------------------------------------|
|----------------------------------------------|
|----------------------------------------------|
|----------------------------------------------|
|----------------------------------------------|
|
|  S S S  S  +S  S  E  E  S  S      E   S    S
|--0h2----2--(2)-------0------------2----------|
|--0---0---------0--0--0--0--0------0---0----0-|
|--4-------------------4------------4----------|
|----------------------------------------------|
|----------------------------------------------|
|----------------------------------------------|


                                                ~~
   E.         a  +S   E     E  S      +E     S  Q
|-19b21======19r(19)p17----19-19b21==(19)---19-19-----|
|-----------------------------------------------------|
|-----------------------------------------------------|
|-----------------------------------------------------|
|-----------------------------------------------------|
|-----------------------------------------------------|
|
|  S     S S      S  +S  S  E  E          S  S  S S E
|--2h====4--------4--(4)-------0-------------0--------|
|--0-------0-------------0-----0----------0-----0-0---|
|--2------------------------2--2--------------------2-|
|-----------------------------------------------------|
|-----------------------------------------------------|
|-----------------------------------------------------|


   +E      E       +S   E.      E.       a  +S   E  E
|-(19)r---19b21---(19)-19b21---19b21====19r(19)p17-19---|
|-------------------------------------------------------|
|-------------------------------------------------------|
|-------------------------------------------------------|
|-------------------------------------------------------|
|-------------------------------------------------------|
|
|   S   S  S    S  +S   S    E  E     S      S   E  S S
|---4h==5-------5--(5)----------4----------------0------|
|---0------0----0--(0)--0-------0-----0------0---0--0-0-|
|---2------------------------2--2----------------2------|
|-------------------------------------------------------|
|-------------------------------------------------------|
|-------------------------------------------------------|


   ~~~~~~~~~~~~~~
   E.     S  +E     E   Q        Q
|-19-----19-(19)---19-------------------|
|---------------------------------------|
|---------------------------------------|
|---------------------------------------|
|---------------------------------------|
|-----------------------x\------12\-----|
|
|  S S S  S  +S  S  S S S S S S +S  S E
|--0h2----2--(2)-2--2-2-0h2---2-(2)-2-2-|
|--0---0---------0--0-0-0---0-------0-0-|
|--4--------------------4---------------|
|---------------------------------------|
|---------------------------------------|
|---------------------------------------|


                                                                 ~~~
  H               +E  E   E  E      S  E    S  +S  S E S E.     +Q
|--------------------------------|--------------------------------------|
|--------------------------------|--------------------------------------|
|--------------------------------|--------------------------------------|
|--------------------------------|--------------------------------------|
|---------------------7s==9-11---|-11h12---11-(11)-9s7-7s9------(9)-----|
|-0---------------(0)------------|--------------------------------------|
|
| S S S S +S  S E  E  S S E  S S    S  S S  S  +S  S E E    S S  S  S E
|-0h2---2-(2)------0------2------|--2h=4----4--(4)-----0------0---------|
|-0---0-------0-0--0--0-0-0--0-0-|--0----0---------0---0----0----0--0---|
|-4----------------4------4------|--2----------------2-2--------------2-|
|--------------------------------|--------------------------------------|
|--------------------------------|--------------------------------------|
|--------------------------------|--------------------------------------|


   ~~~
  +E    E    E     E  S  E    S  +S  S E
|------------------------------------------|
|------------------------------------------|
|------------------------------------------|
|------------------------------------------|
|-(9)--------9----11-11h12---11-(11)-9s7---|
|------12----------------------------------|
|
|  S S  S S +S  S  E  E    S  S   E    S S
|--4h5----5-(5)-------4-----------0--------|
|--0----0-0-(0)-0-----0----0--0---0----0-0-|
|--2---------------2--2-----------2--------|
|------------------------------------------|
|------------------------------------------|
|------------------------------------------|


              ~~~~~~~~~~~~~~~~~~~
  a S E.      E.     S     E.        S  Q
|----------------------------------------------|
|----------------------------------------------|
|----------------------------------------------|
|----------------------------------------------|
|-7s9s7-------7------7(19)-7(19)---------------|
|------------------------------------7--7\-----|
|
|   S S  S S +S  S S S     S     S S S +S  S E
|---0h2----2-(2)-2-2-2-----0h====2---2-(2)-2-2-|
|---0----0-------0-0-0-----0-------0-------0-0-|
|---4----------------------4-------------------|
|----------------------------------------------|
|----------------------------------------------|
|----------------------------------------------|


                                                         ~~~~~~~~~

  H               +E  E   E  E      S  E    S  +S  S E S E.     Q
|--------------------------------|------------------------------------|
|--------------------------------|------------------------------------|
|--------------------------------|------------------------------------|
|--------------------------------|------------------------------------|
|---------------------7s==9-11---|-11h12---11-(11)-9s7-7s9------9-----|
|-0---------------(0)------------|------------------------------------|
|
| S S S S +S  S E  E  S S E  S S    S  S S  S  +S  S E E    S S S S E
|-0h2---2-(2)------0------2------|--2h=4----4--(4)-----0------0-------|
|-0---0-------0-0--0--0-0-0--0-0-|--0----0---------0---0----0---0-0---|
|-4----------------4------4------|--2----------------2-2------------2-|
|--------------------------------|------------------------------------|
|--------------------------------|------------------------------------|
|--------------------------------|------------------------------------|


  ~~
  E   E    E     E  S  E    S  +S  S E
|----------------------------------------|
|----------------------------------------|
|----------------------------------------|
|----------------------------------------|
|-9---7s===9----11-11h12---11-(11)-9s7---|
|----------------------------------------|
|
| S S S S +S  S  E  E    S  S   E    S S
|-4h5---5-(5)-------4-----------0--------|
|-0---0-0-(0)-0-----0----0--0---0----0-0-|
|-2--------------2--2-----------2--------|
|----------------------------------------|
|----------------------------------------|
|----------------------------------------|


  a S E.     +Q        S E.      Q
|---------------------------------------|
|---------------------------------------|
|---------------------------------------|
|---------------------------------------|
|-7s9s7------(7)-------x/---------------|
|----------------------x/x\-----12\-----|
|
|   S S  S S +S  S S S S S  S S +S  S E
|---0h2----2-(2)-2-2-2-0h2----2-(2)-2-2-|
|---0----0-------0-0-0-0----0-------0-0-|
|---4------------------4----------------|
|---------------------------------------|
|---------------------------------------|
|---------------------------------------|


                 <                 <
  H              H        +H       H
|----------------------|-----------------||
|----------------------|-----------------||
|----------------------|-----------------||
|----------------------|-----------------||
|----------------------|-----------------||
|-0-------------[0]----|-([0])----[0]----||
|
| S S S S S S E  H         W
|-0h2---2--------0-----|-----------------||
|-0---0---0-0-0--0-----|-----------------||
|-4--------------4-----|-----------------||
|----------------------|-----------------||
|----------------------|-----------------||
|----------------------|-----------------||


  Gtr I
    E   S  S  +S   E. E S S S S E   E S S +S  S  E E S S S E.
|---------------------------------|--------------------0------|
|-------------------------0-------|------------------0-0------|
|---7-----11-(11)-----9-------9---|-7-x-9-(9)-x-11-9-9-9-7-9--|
|---5---x--9--(9)--9--7-----7-----|-5-x-7-(7)-x--9-7-7---7-7--|
|---7---x-10-(10)-10--9-9---------|-7-x-9-(9)-x-10-9----------|
|------------------0------------0-|---------------------------|
|
| Gtr II
|  +W                               W
|---------------------------------|---------------------------|
|---------------------------------|---------------------------|
|---------------------------------|---------------------------|
|---------------------------------|---------------------------|
|---------------------------------|---------------------------|
|-([0])---------------------------|---------------------------|


  Gtr I
   E  S  S S S E E S S E S S
|--------0-------------------|
|-----0--0---------0---------|
|-11-11-11-------9-x-x-7-x-x-|
|--9--9----9-9---7-x-x-5-x-x-|
|-10-------------9-x-x-7-x-x-|
|--------------0-------------|


  E S S +S  S E E S S E E    E  S S  S  S E E E E E
|-------------------------|--------------------------|
|-----0-(0)-0-------------|-----0-0--0--0------------|
|-9-9-9-(9)-9-9-----9-----|-11-11---11-11---9-x-7----|
|-7-7-7-(7)-7-7-7-7-7-7-7-|--9--9----9--9---7---5----|
|-9-9---------9-9-9-9-9-9-|-10--------------9---7----|
|-------------------------|---------------0-------0--|


  E S S S S E E S S S S E    E  S  S  +S   S E E E E E
|-----0-0-0-------0-------|----------------------------|
|-----0-0-0-----0---7-7---|-----0--0--(0)--0-----------|
|-9-9---9-9---7-7---------|-11-11-11-(11)-11---9---7---|
|-7-7---7-7---5-5---------|--9--9--9--(9)--9---7-x-5---|
|-9-9---------7-----------|-10---------------0-9-x-7---|
|-----------0-----------0-|--------------------------0-|


                                          >
  E S S +S  S E E S S S S E   E E +S  S E E S S S S E
|-----0-(0)-----------------|-------------------------|
|-----0-(0)-0---------------|-------------------------|
|---9-9-(9)-9-------9-------|---9-(9)-9---9-9-9-9-9---|
|---7-7-(7)-7-7-7-7---7-7---|-----------7-7-7-7-7-7---|
|-9-9---------------------9-|-9---------------------9-|
|---------------------------|-------------------------|


  E S S +S  S E E. S S S E   E. S +E  E H      W
|--------------------------|-----------------|------*|
|--------------------------|-----------------|------*|
|-----9-(9)----------------|-----------------|------*|
|---9-------9--------------|-----------------|------*|
|-------------7----7-7-7---|-----------------|------*|
|-0-------------0--------0-|-0--0-(0)-0-0----|------*|


Duration Legend
---------------
W - whole; H - half; Q - quarter; E - 8th; S - 16th; T - 32nd; X - 64th; a - acciaccatura
+ - note tied to previous; . - note dotted; .. - note double dotted
Uncapitalized letters represent notes that are staccato (1/2 duration)
Irregular groupings are notated above the duration line
Duration letters will always appear directly above the note/fret number it represents the
duration for.  Duration letters with no fret number below them represent rests.  Multi-
bar rests are notated in the form Wxn, where n is the number of bars to rest for.  Low
melody durations appear below the staff

Tablature Legend
----------------
 h   - hammer-on
 p   - pull-off
 b   - bend
 pb  - pre-bend
 r   - bend release (if no number after the r, then release immediately)
 /\  - slide into or out of (from/to "nowhere")
 s   - legato slide
 S   - shift slide
  - natural harmonic
[n]  - artificial harmonic
n(n) - tapped harmonic
 ~   - vibrato
 tr  - trill
 T   - tap
 TP  - trem. picking
 PM  - palm muting
\n/  - tremolo bar dip; n = amount to dip
 \n  - tremolo bar down
 n/  - tremolo bar up
/n\  - tremolo bar inverted dip
 =   - hold bend; also acts as connecting device for hammers/pulls
 <>  - volume swell (louder/softer)
 x   - on rhythm slash represents muted slash
 o   - on rhythm slash represents single note slash

Misc Legend
-----------
 |  - bar
||  - double bar
||o - repeat start
o|| - repeat end
*|  - double bar (ending)
 :  - bar (freetime)
 $  - Segno
 &  - Coda
Tempo markers -  = BPM(8/16=s8/s16), where s8 = swing 8ths, s16 = swing 16ths


Joe Satriani albums
2004 Is There Love in Space?
2002 Strange Beautiful Music
2000 Engines of Creation
1998 Crystal Planet
1995 Joe Satriani
1993 Time Machine
1992 The Extremist
1989 Flying in a Blue Dream
1987 Surfing With the Alien
1986 Not of This Earth
The Extremist tabs
01Friends tabbass tab
02The Extremist (Living on the Edge) tabbass tab
03War tabbass tab
04Cryin' tabbass tab
05Rubina's Blue Sky Happiness tabbass tab
06Summer Song tabbass tab
07Tears in the Rain tabbass tab
08Why tabbass tab
09Motorcycle Driver tabbass tab

 

1