Search tabs:
Browse artists: 0-9 | A | B | C | D | E | F | G | H | I | J | K | L | M | N | O | P | Q | R | S | T | U | V | W | X | Y | Z
/ Joe Satriani / The Extremist (1992) / Tears in the Rain guitar tab

100% correct


                          Tears In The Rain


                                                          Joe Satriani





E||------------0--------|-----------0--------|-----------0--------|
B||---------3-----3-----|--------3-----3-----|--------6-----6-----|
G||*-----5-----------5--|-----4-----------4--|-----7-----------7--|
D||*--7-----------------|--3-----------------|--6-----------------|
A||---------------------|--------------------|--------------------|
E||---------------------|--------------------|--------------------|



-----------0---------||-----------8--------|-----------5--------|
--------3-----3------||--------6-----6-----|--------5-----5-----|
-----5-----------5--*||-----9-----------9--|-----5-----------5--|
--7-----------------*||--7-----------------|--7-----------------|
---------------------||--------------------|--------------------|
---------------------||--------------------|--------------------|



-----------8--------|-----------5--------|-----------0--------|
--------6-----6-----|--------5-----5-----|--------1-----1-----|
-----9-----------9--|-----5-----------5--|-----2-----------2--|
--7-----------------|--7-----------------|--3-----------------|
--------------------|--------------------|--------------------|
--------------------|--------------------|--------------------|



-----------0--------|-----------0--------|-----------0--------|
--------1-----1-----|--------3-----3-----|--------3-----3-----|
-----2-----------2--|-----1-----------1--|-----1-----------1--|
--3-----------------|--3-----------------|--3-----------------|
--------------------|--------------------|--------------------|
--------------------|--------------------|--------------------|



-----------0--------|-----------0--------|--------------------|
--------1-----1-----|--------3-----3-----|--------------------|
-----2-----------2--|-----4-----------4--|--------------------|
--2-----------------|--2-----------------|--------------------|
--------------------|--------------------|--0--2--3--------2--|
--------------------|--------------------|-----------0--4-----|



---------------|--------------|-----------0--------|
---------------|--------------|--------3-----3-----|
---------------|--------------|-----5-----------5--|
---------------|--------------|--------------------|
--0------------|--------------|--0-----------------|
---------------|--------------|--------------------|



-----------0--------|-----------0--------|-----------0--------|
--------3-----3-----|--------6-----6-----|--------3-----3-----|
-----4-----------4--|-----7-----------7--|-----5-----------5--|
--3-----------------|--6-----------------|--7-----------------|
--------------------|--------------------|--------------------|
--------------------|--------------------|--------------------|



-----------0--------|-----------0--------|-----------0--------|
--------3-----3-----|--------3-----3-----|--------6-----6-----|
-----5-----------5--|-----4-----------4--|-----7-----------7--|
--------------------|--3-----------------|--6-----------------|
--0-----------------|--------------------|--------------------|
--------------------|--------------------|--------------------|



-----------0--------|-----------8--------|-----------8--------|
--------3-----3-----|--------6-----6-----|--------6-----6-----|
-----5-----------5--|-----9-----------9--|-----9-----------9--|
--7-----------------|--0-----------------|--0-----------------|
--------------------|--------------------|--------------------|
--------------------|--------------------|--------------------|



------------7---------|------------7---------|-----------0--------|
--------10-----10-----|--------10-----10-----|--------3-----3-----|
-----9-------------9--|-----9-------------9--|-----2-----------2--|
----------------------|----------------------|--------------------|
----------------------|----------------------|--2-----------------|
--8-------------------|--8-------------------|--------------------|



-----------0--------|-----------1--------|-----------0--------|
--------3-----3-----|--------3-----3-----|--------1-----1-----|
-----1-----------1--|-----2-----------2--|-----2-----------2--|
--------------------|--------------------|--------------------|
--------------------|--0-----------------|--0-----------------|
--0-----------------|--------------------|--------------------|



-----------8--------|-----------8--------|------------7---------|
--------6-----6-----|--------6-----6-----|--------10-----10-----|
-----9-----------9--|-----9-----------9--|-----9-------------9--|
--0-----------------|--0-----------------|----------------------|
--------------------|--------------------|----------------------|
--------------------|--------------------|--8-------------------|



------------7---------|-----------7-------|-----------4-------|
--------10-----10-----|--------6-----6----|--------3-----3----|
-----9-------------9--|-----7-------------|-----4-------------|
----------------------|--6----------------|--3----------------|
----------------------|-------------------|-------------------|
--8-------------------|-------------------|-------------------|



-----------1-------|-------------------|-------------------|
--------0-----0----|-----------3-------|-----------3-------|
-----1-------------|--------1-----1----|--------4-----4----|
--0----------------|-----3-------------|-----3-------------|
-------------------|--2----------------|-------------------|
-------------------|-------------------|--4----------------|



-------------------|--------------------|--------------------|
-----------0-------|-----------1--------|-----------0--------|
--------1-----1----|--------2-----2-----|--------1-----1-----|
-----0-------------|-----2-----------2--|-----2-----------2--|
-------------------|--------------------|--------------------|
--1----------------|--0-----------------|--0-----------------|



--------------|--------------------|-----------0--------|
--------------|-----------1--------|--------1-----1-----|
--------------|--------2-----2-----|-----2-----------2--|
--------------|-----2-----------2--|--2-----------------|
--------------|--0-----------------|--------------------|
--------------|--------------------|--------------------|



--------0--5----7--|----8----------|---------------||
-----1----------3--|----5----------|---------------||
--2----------------|---------------|---------------||
-------------------|---------------|---------------||
-------------------|---------------|--0------------||
-------------------|---------------|---------------||


Joe Satriani albums
2004 Is There Love in Space?
2002 Strange Beautiful Music
2000 Engines of Creation
1998 Crystal Planet
1995 Joe Satriani
1993 Time Machine
1992 The Extremist
1989 Flying in a Blue Dream
1987 Surfing With the Alien
1986 Not of This Earth
The Extremist tabs
01Friends tabbass tab
02The Extremist (Living on the Edge) tabbass tab
03War tabbass tab
04Cryin' tabbass tab
05Rubina's Blue Sky Happiness tabbass tab
06Summer Song tabbass tab
07Tears in the Rain tabbass tab
08Why tabbass tab
09Motorcycle Driver tabbass tab

 

1