Search tabs:
Browse artists: 0-9 | A | B | C | D | E | F | G | H | I | J | K | L | M | N | O | P | Q | R | S | T | U | V | W | X | Y | Z
/ Joe Satriani / Flying in a Blue Dream (1989) / The Mystical Potato Head Groove Thing guitar tab

THE MYSTICAL POTATO HEAD GROOVE THING
As recorded by Joe Satriani
Album FLYING IN A BLUE DREAM)
Music by Joe Satriani

-chord chart-
B5
x 2 4 4 x x
	
C5
x 3 5 5 x x
	
D5
x 5 7 7 x x
	
E5
x 7 9 9 0 x

A5
x 7 7 x x x
	
B5IX
x 9 9 x x x
	
Bb5
6 8 8 x x x
	
C5VIII
8 10 10 x x x

G5
3 5 5 x x x
	
F5
x 3 3 x x x
	
G5V
x 5 5 x x x
	
B5VII
7 9 9 x x x

A/C#
x 4 7 x x x
	
E5(type 2)
x x x x 0 0
	
D
x 5 4 x x x
	
A5(type 2)
x x 2 2 x x

Gtr I (E A D G B E) - 'Joe Satriani - w/ dist'
Gtr II (E A D G B E) - 'Joe Satriani - w/ dist'
Gtr III (E A D G B E) - 'Joe Satriani - w/ dist'

   Intro
    Uptempo Rock Q=176
    N.C.
   4/4
    Gtr I
    PM----|                            PM----|
    E S S E  E  +E   E Q    W          E S S E  E  +E   E Q    W
||------------------------|----------|-----------------------|-------||
||o-----------------------|----------|-----------------------|------o||
||------------------------|----------|-----------------------|-------||
||----------11-(11)-12----|----------|---------12-(12)-11----|-------||
||o----------7--(7)--7----|----------|----------7--(7)--7----|------o||
||--0-0-0-0---------------|----------|-0-0-0-0---------------|-------||


  N.C.
  PM----|
  E S S E  E  +E   E Q    E E E E E   +E  E E
|-----------------------|---------------------|
|-----------------------|---------------------|
|-----------------------|---------------------|
|---------11-(11)-12----|---------------------|
|----------7--(7)--7----|---------------------|
|-0-0-0-0---------------|---0-3-0-5b6r(5)-3p0-|


  PM----|                             ~
  E S S E  E  +E   E Q    E E E E E E Q
|-----------------------|------------------|
|-----------------------|------------------|
|-----------------------|------------------|
|---------12-(12)-11----|------------------|
|----------7--(7)--7----|-------------5----|
|-0-0-0-0---------------|---0-3-0-6h7------|


  N.C.
  PM----|
  E S S E  E  +E   E Q    E E E E E   +E  E E
|-----------------------|---------------------|
|-----------------------|---------------------|
|-----------------------|---------------------|
|---------11-(11)-12----|---------------------|
|----------7--(7)--7----|---------------------|
|-0-0-0-0---------------|---0-3-0-5b6r(5)-3p0-|


                            A5
  PM----|
  E S S E  E  +E   E Q    E E E E E E  E E
|-----------------------|-----------0-(0)----|
|-----------------------|--------------------|
|-----------------------|-------2-3----3s2---|
|---------12-(12)-11----|--------------------|
|----------7--(7)--7----|---2-3--------------|
|-0-0-0-0---------------|--------------------|


  N.C.
  PM----|                                       PM----|
  E S S E  E  +E   E Q    E E E E E   +E  E E   E S S E  E  +E   E Q
|-----------------------|---------------------|------------------------|
|-----------------------|---------------------|------------------------|
|-----------------------|---------------------|------------------------|
|---------11-(11)-12----|---------------------|---------12-(12)-11-----|
|----------7--(7)--7----|---------------------|----------7--(7)--7-----|
|-0-0-0-0---------------|---0-3-0-5b6r(5)-3p0-|-0-0-0-0----------------|


  N.C.
                ~~~    PM----|
  E E E E E   E Q      E S S E  E  +E   E Q    E E E E E   +E  E E
|--------------------|-----------------------|---------------------|
|--------------------|-----------------------|---------------------|
|--------------------|-----------------------|---------------------|
|--------------------|---------11-(11)-12----|---------------------|
|--------------------|----------7--(7)--7----|---------------------|
|---0-3-0-6b7-7-6b7--|-0-0-0-0---------------|---0-3-0-5b6r(5)-3p0-|


  N.C.                                    A5
  Gtr II
                        \7____/
  H            Q     E  a    +E      +W
|---------------------------------|---------------------||
|---------------------------------|---------------------||
|----------------------<4>--(<4>)-|-(<4>)---------------||
|---------------------------------|---------------------||
|---------------------------------|---------------------||
|---------------------------------|---------------------||
|
| Gtr I
| PM----|
| E S S E  E  +E   E Q                E   E E E E E E E
|---------------------------------|---------------0-----||
|---------------------------------|---------------------||
|---------------------------------|-----------2-3---3---||
|---------12-(12)-11--------------|---------------------||
|----------7--(7)--7--------------|-------2-3---------3-||
|-0-0-0-0-------------------------|---------------------||


  B5
                    ~~~~~~~~~~~~~~
   +H.             +Q        +W
|-------------------------|-----------------------|
|-------------------------|-----------------------|
|-(<4>)-----------(<4>)---|-(<4>)-----------------|
|-------------------------|-----------------------|
|-------------------------|-----------------------|
|-------------------------|-----------------------|
|
|   PM------------------------------|
|   E   E E E E E   E   E     E   E E E E E E E
|-------------------------|-------------0---------|
|-------------------------|---4---4-------0h1-----|
|---------4-----4---------|-------------------2---|
|-------4-----4---------4-|-----------------------|
|---2-------3-------2-----|---------2-0-----------|
|-------------------------|-----------------------|


  B5
    ~~~~~~~~~~~~~~~~~~~~~~~~~~
   +W                    +Q.       E E E E E
|---------------------|----------------------|
|---------------------|-----------/5-4-------|
|-(<4>)---------------|-(<4>)----------5-4---|
|---------------------|--------------------5-|
|---------------------|----------------------|
|---------------------|----------------------|
|
|   PM--------------------------|
|   E   E E E E E E E     E   E E  E E E E E
|---------------------|--------------0-------|
|---------------------|---4---4--------0h1---|
|---------4-----4-----|--------------------2-|
|-------4-----4-----4-|----------------------|
|---2-------3-----2---|---------2--0---------|
|---------------------|----------------------|


                                   ~~~
  Q   +E    +E  +E  +E    +Q      +W
|-------------------------------|-------------------|
|-------------------------------|-------------------|
|-------------------------------|-------------------|
|-4---(4)b5r(4)-(4)-(4)b6r(4)---|-(4)---------------|
|-------------------------------|-------------------|
|-------------------------------|-------------------|
|
| PM------------------------------------|
| E E  E     E   E   E     E  E    E  E E E E E E E
|-------------------------------|-----------0-------|
|-------------------------------|--4--4-------0h1---|
|------4-------------4----------|-----------------2-|
|---4------------4------------4-|-------------------|
|-2----------3-------------2----|-------2-0---------|
|-------------------------------|-------------------|


  B5     C5      B5                          E5
  Gtr I
   q   E e +E  E Q    +H..             +E    W
   |   | |  |  | |     |                |
   /   / /  /  / /     /                /

  Gtr II                                     Gtr I
                                   \7
                                               PM--|   PM----|
   Q.    E +E  E Q    +H      +E  +Q.        E S S E E E E E E
|-------------------|---------------------||-------------------|
|-------------------|---------------------||-------------------|
|-------------------|---------------------||---------9---------|
|-------------------|---------------------||-9-------9---------|
|-\2-----3-(3)-3-2--|-(2)-----(2)-(2)-----||-7-----------------|
|-------------------|---------------------||---0-0-0---0-0-0-0-|


     G5 F#5       E5      F#5 E5
  Gtr I
        PM----------|
   a  E S  S  +S  S  E  a  Q  Q
|--------------------------------|
|--------------------------------|
|--------------------------------|
|-11s12---11-(11)----9--9s11--9--|
|--9s10-9---------7-(7)-7s=9--7--|
|--------------------------------|
|
| Gtr II
|     W
|--------------------------------|
|--------------------------------|
|--------------------------------|
|--------------------------------|
|--------------------------------|
|--------------------------------|


  D                   B5            Bm11
    PM--|   PM|
  E S S E E E E E E   E   E    E  E  Q      E  E
|-------------------|----------------0------0------|
|---------------7---|----------------3------3------|
|---------7-----7---|-----4----------2------2------|
|---------7-----7---|-----4------------------------|
|-5-5-5-5---5-5---5S|=2--------2--2------------2---|
|-------------------|------------------------------|
|
| W                   E   E    E  E  E   Q     E
|-------------------|--------<12>-------<7>--------|
|-------------------|---<12>--------<7>-------<7>--|
|-------------------|------------------------------|
|-------------------|------------------------------|
|-------------------|------------------------------|
|-------------------|------------------------------|


  E5                           G5 F#5       E5      F#5
      PM--|       PM----|         PM----------|
   E  S S  E   E  E E E E    a  E S  S  +S  S  E  a  Q  Q
|-------------------------|--------------------------------|
|-------------------------|--------------------------------|
|--------------9----------|--------------------------------|
|--9-----------9----------|-11s12---11-(11)----9--9s11--9--|
|--7----------------------|--9s10-9---------7-(7)-7s=9--7--|
|-----0-0--0------0-0-0-0-|--------------------------------|
|
|  Q       E   E  H             W
|-<7>---------<5>---------|--------------------------------|
|---------<5>-------------|--------------------------------|
|-------------------------|--------------------------------|
|-------------------------|--------------------------------|
|-------------------------|--------------------------------|
|-------------------------|--------------------------------|


  D                   B5      Bm11
    PM--|   PM|
  E S S E E E E E E   E E E E Q  E E
|-------------------|---------0--0----|
|---------------7---|---------3--3----|
|---------7-----7---|---4-----2--2----|
|---------7-----7---|---4-------------|
|-5-5-5-5---5-5---5S|=2---2-2------2--|
|-------------------|-----------------|
|
| W                   W
|-------------------|-----------------|
|-------------------|-----------------|
|-------------------|-----------------|
|-------------------|-----------------|
|-------------------|-----------------|
|-------------------|-----------------|


  E5                     G5 F#5       E5      F#5 E5
    PM--|   PM----|         PM----------|
  E S S E E E E E E    a  E S  S  +S  S  E  a  Q  Q
|-------------------|--------------------------------|
|-------------------|--------------------------------|
|---------9---------|--------------------------------|
|-9-------9---------|-11s12---11-(11)----9--9s11--9--|
|-7-----------------|--9s10-9---------7-(7)-7s=9--7--|
|---0-0-0---0-0-0-0-|--------------------------------|
|
| W                       W
|-------------------|--------------------------------|
|-------------------|--------------------------------|
|-------------------|--------------------------------|
|-------------------|--------------------------------|
|-------------------|--------------------------------|
|-------------------|--------------------------------|


  D                   B5            Bm11
    PM--|   PM|
  E S S E E E E E E   E   E    E  E  Q      E  E
|-------------------|----------------0------0------|
|---------------7---|----------------3------3------|
|---------7-----7---|-----4----------2------2------|
|---------7-----7---|-----4------------------------|
|-5-5-5-5---5-5---5S|=2--------2--2------------2---|
|-------------------|------------------------------|
|
| W                   E   E    E  E  E   Q     E
|-------------------|--------<12>-------<7>--------|
|-------------------|---<12>--------<7>-------<7>--|
|-------------------|------------------------------|
|-------------------|------------------------------|
|-------------------|------------------------------|
|-------------------|------------------------------|


  E5                           G5 F#5       E5      F#5 E5
      PM--|       PM----|         PM----------|
   E  S S  E   E  E E E E    a  E S  S  +S  S  E  a  Q  Q
|-------------------------|--------------------------------|
|-------------------------|--------------------------------|
|--------------9----------|--------------------------------|
|--9-----------9----------|-11s12---11-(11)----9--9s11--9--|
|--7----------------------|--9s10-9---------7-(7)-7s=9--7--|
|-----0-0--0------0-0-0-0-|--------------------------------|
|
|  Q       E   E  H             W

|-<7>---------<5>---------|--------------------------------|
|---------<5>-------------|--------------------------------|
|-------------------------|--------------------------------|
|-------------------------|--------------------------------|
|-------------------------|--------------------------------|
|-------------------------|--------------------------------|


  D                   B5         Bm11
    PM--|   PM|
  E S S E E E E E E   E  E  E  E Q   E  E
|-------------------|------------0---0-----||
|---------------7---|------------3---3-----||
|---------7-----7---|----4-------2---2-----||
|---------7-----7---|----4-----------------||
|-5-5-5-5---5-5---5S|=2-----2--2--------2--||
|-------------------|----------------------||
|
| H         Q   E E   E  E  E  E E E Q
|-----------------0-|-5/-----------0-------||
|-------------------|----0-12\-0-----------||
|-------------------|------------4---------||
|-------------------|----------------------||
|-------------------|----------------x\----||
|-------------------|----------------------||


  E5                              G5   F#5       E5        F#5   E5
  Gtr II
                           ~~~~~~~~~~~~
  E Q.       E   E   E     E       +Q         E     E       +Q   Q
|-------------------14b15-12-|----(12)-------12----14b16---(14)-----|
|--------------<12>----------|--------------------------------------|
|----------------------------|--------------------------------------|
|---x/-----------------------|--------------------------------------|
|----------------------------|--------------------------------------|
|----------------------------|--------------------------------------|
|
| Gtr I
|   PM---|   PM-----------|            PM----------|
| E S  S E E E   E   E     E    a   E  S  S  +S  S  E    a   Q   Q
|----------------------------|--------------------------------------|
|----------------------------|--------------------------------------|
|----------9-----------------|--------------------------------------|
|-9--------9-----------------|-11s=12----11-(11)----9----9s=11---9--|
|-7--------------------------|--9s=10--9---------7-(7)---7s==9---7--|
|---0--0-0---0---0---0-----0-|--------------------------------------|


  D                           B5           Bm11
  Q     E  E  E  E     E  E    E  E    Q    E      +E   E E
|---------------------16-17-|-19-19b21-----16pb17r(16)-------|
|------------17-19b20-------|--------------------------17----|
|---------18----------------|--------------------------------|
|---------------------------|--------------------------------|
|---------------------------|--------------------------------|
|---------------------------|--------------------------------|
|
|   PM--|     PM|
| E S S E  E  E  E     E  E    E  E    E E  Q           E E
|---------------------------|---------------0-----------0----|
|----------------------7----|---------------3-----------3----|
|----------7-----------7----|-----4---------2-----------2----|
|----------7-----------7----|-----4--------------------------|
|-5-5-5-5-----5--5--------5S|==2-------2-2----------------2--|
|---------------------------|--------------------------------|


  E5                           G5 F#5           E5      F#5      E5
   ~~        ~~~~~~~
   Q      E  E  +H              E  E        +E     E     E  E     +E   E
|-------------------------|----------------------------------------------|
|--------17---------------|-------14b15r===(14)---12---------------------|
|-16--------16-(16)-------|--------------------------------13b14r(13)p11-|
|-------------------------|----------------------------------------------|
|-------------------------|----------------------------------------------|
|-------------------------|----------------------------------------------|
|
|    PM--|       PM-----|          PM-------------|
|  E S S  E  E   E  E E E    a  E  S     S  +S  S  E  a  Q         Q
|-------------------------|----------------------------------------------|
|-------------------------|----------------------------------------------|
|------------9------------|----------------------------------------------|
|--9---------9------------|-11s12-------11-(11)----9--9s11---------9-----|
|--7----------------------|--9s10--9------------7-(7)-7s=9---------7-----|
|----0-0--0------0--0-0-0-|----------------------------------------------|


  D                        B5                    Bm11
          ~
  Q     E E +E  E E E      +E  +E     +E  +E     +S  +S     +S  +S  +E   E
|------------------------|---------------------------------------------------|
|------------------------|---------------------------------------------------|
|---------9-(9)s7---6b7==|=(6)r(6)b7==(6)r(6)b7==(6)r(6)b7==(6)r(6)-(6)\-----|
|-----------------7------|---------------------------------------------------|
|------------------------|---------------------------------------------------|
|------------------------|---------------------------------------------------|
|
|   PM--|    PM-|
| E S S E E  E  E E E       E   E      E   E      Q                  E   E
|------------------------|------------------------0------------------0-------|
|-----------------7------|------------------------3------------------3-------|
|---------7-------7------|------4-----------------2------------------2-------|
|---------7-------7------|------4--------------------------------------------|
|-5-5-5-5----5--5---5S===|==2----------2---2-----------------------------2---|
|------------------------|---------------------------------------------------|


  E5                           G5 F#5       E5      F#5 E5
             ~~~~~~~
   Q      E  E  +Q    Q         W
|-19----------------------|--------------------------------|
|-------------------------|--------------------------------|
|--------21-21-(21)-------|--------------------------------|
|-------------------------|--------------------------------|
|-------------------------|--------------------------------|
|-------------------------|--------------------------------|
|
|    PM--|       PM-----|         PM----------|
|  E S S  E  E   E  E E E    a  E S  S  +S  S  E  a  Q  Q
|-------------------------|--------------------------------|
|-------------------------|--------------------------------|
|------------9------------|--------------------------------|
|--9---------9------------|-11s12---11-(11)----9--9s11--9--|
|--7----------------------|--9s10-9---------7-(7)-7s=9--7--|
|----0-0--0------0--0-0-0-|--------------------------------|


  D                           B5            Bm11
  E E     Q     E   E  E  E    Q     E   E   +H
|-------<12>-------<7>------|-----------<5>-(<5>)-------|
|---0----------<7>-----0-<7>|-<5>---<5>-----------------|
|---------------------------|---------------------------|
|---------------------------|---------------------------|
|---------------------------|---------------------------|
|---------------------------|---------------------------|
|
|   PM--|       PM-|
| E S S   E  E  E   E  E  E    E  E  E   E    Q    E E
|---------------------------|-----------------0----0----|
|----------------------7----|-----------------3----3----|
|------------7---------7----|-----4-----------2----2----|
|------------7---------7----|-----4---------------------|
|-5-5-5---5-----5---5-----5S|==2-----2---2-----------2--|
|---------------------------|---------------------------|


    B5                                                        E5
     S  S   S  S   S   S   S  S   S  S  S  S   S  S   S   S   W
||-------------------h12--------------------------------h12-|---------------|
||o--------------h10-----h10------------------------h10-----|---------------|
||------------h7-------------h7------------------h7---------|---------------|
||--------h11-------------------h11----------h11------------|---------------|
||o----h9---------------------------h9----h9----------------|---------------|
||--h7---------------------------------h7-------------------|---------------|
|Each time you play these they are played only with the LEFT HAND with the
|Righthand behind the left hand holding the neck
|                                                                 PM|
|    E      E      Q              E     E      Q              E E E E Q  Q
||----------------------------------------------------------|---------0-----|
||o---------------------------------------------------------|---------0-----|
||---4----------------------------------4-------------------|---9-----------|
||---4----------------------------------4-------------------|---9--------9--|
||o--2----------------------------------2-------------------|---7--------7--|
||----------------------------------------------------------|---0-0-0-------|


  D5                                                                E5
    S   S   S   S   S   S   S   S   S   S   S   S   S   S   S   S   W
|---------------------h16-------------------------------------h14-|-----------------||
|-----------------h14-----h14-----------------------------h14-----|----------------o||
|-------------h11-------------h11---------------------h11---------|-----------------||
|---------h14---------------------h14-------------h14-------------|-----------------||
|-----h12-----------------------------h12-----h12-----------------|----------------o||
|-h10-------------------------------------h10---------------------|-----------------||
|
|                                                                       PM|
|   E       E       Q               E       E       Q               E E E E Q  Q
|-----------------------------------------------------------------|---------0-------||
|-----------------------------------------------------------------|---------0------o||
|---7---------------------------------------7---------------------|---9-------------||
|---7---------------------------------------7---------------------|---9--------9----||
|---5---------------------------------------5---------------------|---7--------7---o||
|-----------------------------------------------------------------|---0-0-0---------||


  E5                                                             G5      F#5          E5            F#5             E5
  E  S   S   S   S   S   S   S   S   S   S   S   S   S   S        S   S   S   S    S   S   S   S     S   S   S   S   S   S   S   S
|---<5>-<5>-<5>-<5>-<5>-<5>-<5>-<5>-<5>-<5>-<5>-<5>-<5>-<5>-|----<5>-<5>-<5>-<5>--<5>-<5>-<5>-<5>---<5>-<5>-<5>-<5>-<5>-<5>-<5>-<5>-|
|-----------------------------------------------------------|-----------------------------------------------------------------------|
|-----------------------------------------------------------|-----------------------------------------------------------------------|
|-----------------------------------------------------------|-----------------------------------------------------------------------|
|-----------------------------------------------------------|-----------------------------------------------------------------------|
|-----------------------------------------------------------|-----------------------------------------------------------------------|
|
|    PM-----|                PM---------------------|                     PM--------------|
| E  S   S   E       E       E       E       E       E         a  E       S   S   +S   S   E      a  Q               Q
|-----------------------------------------------------------|-----------------------------------------------------------------------|
|-----------------------------------------------------------|-----------------------------------------------------------------------|
|--------------------9--------------------------------------|-----------------------------------------------------------------------|
|-9------------------9--------------------------------------|-11s12----------11--(11)------9------9s11---------------9--------------|
|-7---------------------------------------------------------|--9s10-------9------------7--(7)-----7s=9---------------7--------------|
|----0---0---0---------------0-------0-------0-------0------|-----------------------------------------------------------------------|


  D
   S   S   S   S   S   S   S   S   S   S   S   S   S   S   S  S
|-<7>-<7>---------<7>----------------------------------------------|
|---------<7>-<7>-----<7>-<7>-<7>-<7>-<7>-<7>-<7>-<7>-<7>-<7><7>---|
|------------------------------------------------------------------|
|------------------------------------------------------------------|
|------------------------------------------------------------------|
|------------------------------------------------------------------|
|
|          PM-----|                PM-----|
|  E       S   S   E       E       E       E       E       E
|------------------------------------------------------------------|
|--------------------------------------------------7---------------|
|--------------------------7-----------------------7---------------|
|--------------------------7-----------------------7---------------|
|--5-------5---5---5---------------5-------5---------------5S======|
|------------------------------------------------------------------|


  B5                              Bm11                        E5
   S   S  S S   S    S    S    S    S    S    S    S  S S E   W
|-------------------------------------------<12>-<12>-0-0-0-|-0-----------------|
|-<7>-<7>-x-x-<12>-<12>-<12>-<12>-<12>-<12>-----------------|-------------------|
|-----------------------------------------------------------|-------------------|
|-----------------------------------------------------------|-------------------|
|-----------------------------------------------------------|-------------------|
|-----------------------------------------------------------|-------------------|
|
|                                                               PM--|   PM----|
|  E      E     E         E         Q                 E   E   E S S E E E E E E
|-----------------------------------0-----------------0-----|-------------------|
|-----------------------------------3-----------------3-----|-------------------|
|---------4-------------------------2-----------------2-----|---------9---------|
|---------4-------------------------------------------------|-9-------9---------|
|--2------------2---------2-------------------------------2-|-7-----------------|
|-----------------------------------------------------------|---0-0-0---0-0-0-0-|


     G5  F#5        E5      F#5   E5     D                                B5          Bm11
                                                                                       \2.5
     +E  E       E     E     E  E E E    E E   E    a     +E  +H          +Q.      E  +H
|----(0)-x/------0-----0-----x\--------|--------------------------------|---------------------------|
|-------------------------------0-0-x/-|-0-0----------------------------|---------------------------|
|--------------------------------------|-------2b4r(2)b4==(2)-(2)-------|-(2)-----[2]-(2)r----------|
|--------------------------------------|--------------------------------|---------------------------|
|--------------------------------------|--------------------------------|---------------------------|
|--------------------------------------|--------------------------------|---------------------------|
|
|        PM-----------|                    PM--|               PM-|
|  a  E  S   S  +S  S  E  a  Q    Q      E S S E           E   E  E E E    E  E E  E   Q     E E
|--------------------------------------|--------------------------------|--------------0-----0------|
|--------------------------------------|----------------------------7---|--------------3-----3------|
|--------------------------------------|-------------------7--------7---|-----4--------2-----2------|
|-11s12-----11-(11)----9--9s11----9----|-------------------7--------7---|-----4---------------------|
|--9s10--9----------7-(7)-7s=9----7----|-5-5-5-5---------------5--5---5S|==2----2--2-----------2----|
|--------------------------------------|--------------------------------|---------------------------|


  E5                            G5   F#5         E5       F#5 E5
                                  ~~~~
   Q     E E E  E  E     E       +Q         E       +E     H
|-----------------14b15-12-|----(12)-------14b16---(14)----------|
|--------------12----------|-------------------------------------|
|--------------------------|-------------------------------------|
|--------------------------|-------------------------------------|
|--------------------------|-------------------------------------|
|-/xs====x-0---------------|-------------------------------------|
|
|    PM--|   PM---------|            PM------------|
|  E S S E E E  E  E     E    a   E  S  S  +S    S   E  a  Q  Q
|--------------------------|-------------------------------------|
|--------------------------|-------------------------------------|
|----------9---------------|-------------------------------------|
|--9-------9---------------|-11s=12----11-(11)-------9--9s11--9--|
|--7-----------------------|--9s=10--9-----------7--(7)-7s=9--7--|
|----0-0-0---0--0--0-----0-|-------------------------------------|


  D                           B5           Bm11
  Q     E  E  E  E     E  E    E  e    Q    E      +E   E  E
|---------------------16-17-|-19-19b21-----16pb17r(16)--------|
|------------17-19b20-------|--------------------------17-----|
|---------18----------------|-----------------------------16--|
|---------------------------|---------------------------------|
|---------------------------|---------------------------------|
|---------------------------|---------------------------------|
|
|   PM--|     PM|
| E S S E  E  E  E     E  E    E  E    E E  Q           E  E
|---------------------------|---------------0-----------0-----|
|----------------------7----|---------------3-----------3-----|
|----------7-----------7----|-----4---------2-----------2-----|
|----------7-----------7----|-----4---------------------------|
|-5-5-5-5-----5--5--------5S|==2-------2-2-----------------2--|
|---------------------------|---------------------------------|


  E5                                   G5   F#5       E5      F#5      E5
                   ~~~~~~~      ~~~~~~~~~~~~
   E     +E     E  E  +Q     E  E       +Q         E     E     +E   E  Q
|---------------------------------|---------------------------------------|
|---------------------------17----|---------------17---------------17\----|
|-18b19r(18)---16-16-(16)------16-|----(16)-------------16----(16)--------|
|---------------------------------|---------------------------------------|
|---------------------------------|---------------------------------------|
|---------------------------------|---------------------------------------|
|
|         PM---|       PM------|            PM----------|
|  E      S  S  E  E   E  E  E  E    a   E  S  S  +S  S  E  a   Q      Q
|---------------------------------|---------------------------------------|
|---------------------------------|---------------------------------------|
|------------------9--------------|---------------------------------------|
|--9---------------9--------------|-11s=12----11-(11)----9--9s=11------9--|
|--7------------------------------|--9s=10--9---------7-(7)-7s==9------7--|
|---------0--0--0------0--0--0--0-|---------------------------------------|


  D                                B5              Bm11
  E   E      Q     E   E   E   E    E   E   E   E   +Q    Q
|----------<12>-------<7>--------|-<7>---------<5>-(<5>)--------|
|---<12>----------<7>-----<7>-<7>|-----<7>-<5>------------x/----|
|--------------------------------|------------------------------|
|--------------------------------|------------------------------|
|--------------------------------|------------------------------|
|--------------------------------|------------------------------|
|
|     PM---|       PM-|
| E   S  S   E  E  E   E   E   E    E   E   E   E    Q    E  E
|--------------------------------|-------------------0----0-----|
|--------------------------7-----|-------------------3----3-----|
|---------------7----------7-----|------4------------2----2-----|
|---------------7----------7-----|------4-----------------------|
|-5---5--5---5-----5---5-------5S|==2-------2---2------------2--|
|--------------------------------|------------------------------|


  E5                           G5   F#5          E5      F#5 E5
  PM                    ~~~~~~~~~~~~                           ~~~~~
  E E   Q   E  E  E     E       +Q         H                  +Q
|----------------14b15-12-|----(12)-------17b19==============(17)r--|
|-0-----------12----------|-----------------------------------------|
|-------------------------|-----------------------------------------|
|-------------------------|-----------------------------------------|
|-------------------------|-----------------------------------------|
|-------------------------|-----------------------------------------|
|
|   PM--|   PM---------|            PM-------------|
| E S S E E E  E  E     E    a   E  S  S  +S     S  E  a  Q    Q
|-------------------------|-----------------------------------------|
|-------------------------|-----------------------------------------|
|---------9---------------|-----------------------------------------|
|-9-------9---------------|-11s=12----11-(11)-------9--9s11----9----|
|-7-----------------------|--9s=10--9------------7-(7)-7s=9----7----|
|---0-0-0---0--0--0-----0-|-----------------------------------------|


  D                                              B5         Bm11
  E  E       +E       +E   +E       +E   +Q       E  E  Q    Q      +E   E
|---21b22r==(21)b22==(21)r(21)b22==(21)r(21)---|-19-17-19---19b21r=(19)-17--|
|----------------------------------------------|----------------------------|
|----------------------------------------------|----------------------------|
|----------------------------------------------|----------------------------|
|----------------------------------------------|----------------------------|
|----------------------------------------------|----------------------------|
|
|    PM-----|               PM-----|
| E  S    S   E        E    E        E    E  E    E  E  E E  Q       E   E
|----------------------------------------------|-------------0-------0------|
|-----------------------------------------7----|-------------3-------3------|
|----------------------7------------------7----|-----4-------2-------2------|
|----------------------7------------------7----|-----4----------------------|
|-5--5----5---5-------------5--------5-------5S|==2-----2-2--------------2--|
|----------------------------------------------|----------------------------|


  E5
             ~~~~~~~~~~~~~~
   Q      E  E  +Q     +E   +E
|-19-----------------------------|
|--------17-17-(17)---(17)-(17)\-|
|--------------------------------|
|--------------------------------|
|--------------------------------|
|--------------------------------|
|
|    PM--|       PM--------|
|  E S S  E  E   E  E   E    E
|--------------------------------|
|--------------------------------|
|------------9-------------------|
|--9---------9-------------------|
|--7-----------------------------|
|----0-0--0------0--0---0----0---|


     G5 F#5       E5            F#5         E5
                     |--3---|       |--3--|   |-3--|
      Q        E     S   S  S    E  S  S  S E S  S S
|-------------------16h=17p16p===0-10h12p10p0-9h10p9p=|
|-----------------------------------------------------|
|-----------------------------------------------------|
|-----------------------------------------------------|
|-----------------------------------------------------|
|-----------------------------------------------------|
|
|       PM----------|
|  a  E S  S  +S  S  E        a  Q          Q
|-----------------------------------------------------|
|-----------------------------------------------------|
|-----------------------------------------------------|
|-11s12---11-(11)----9--------9s11----------9---------|
|--9s10-9---------7-(7)-------7s=9----------7---------|
|-----------------------------------------------------|


  D                                 B5             Bm11
                                              ~~~~~~~~~~~~~~
    |--3--|   |-3-|   |-3-|
  E S S   S E S S S E S S S S S E   E    +E  +H       +E    E
|-0-7h9p==7p0---------------------|---------------------------||
|-------------7h9p7p0-------------|---------------------------||
|---------------------7h9p7s6h7s4h|=6b7==(6)-(6)------(6)r/---||
|---------------------------------|---------------------------||
|---------------------------------|---------------------------||
|---------------------------------|---------------------------||
|
|   PM------|       PM|
| E S   S   E E     E E     E   E   E     E   E  E Q   E    E
|---------------------------------|----------------0---0------||
|---------------------------7-----|----------------3---3------||
|-------------7-------------7-----|-------4--------2---2------||
|-------------7-------------7-----|-------4-------------------||
|-5-5---5---5-------5-5---------5S|=2---------2--2----------2-||
|---------------------------------|---------------------------||


    $
    B5                                                        E5
     S  S   S  S   S   S   S  S   S  S  S  S   S  S   S   S   W
||-------------------h12--------------------------------h12-|---------------|
||o--------------h10-----h10------------------------h10-----|---------------|
||------------h7-------------h7------------------h7---------|---------------|
||--------h11-------------------h11----------h11------------|---------------|
||o----h9---------------------------h9----h9----------------|---------------|
||--h7---------------------------------h7-------------------|---------------|
|
|                                                                 PM|
|    E      E      Q              E     E      Q              E E E E Q  Q
||----------------------------------------------------------|---------0-----|
||o---------------------------------------------------------|---------0-----|
||---4----------------------------------4-------------------|---9-----------|
||---4----------------------------------4-------------------|---9--------9--|
||o--2----------------------------------2-------------------|---7--------7--|
||----------------------------------------------------------|---0-0-0-------|


  D5                                                                E5
    S   S   S   S   S   S   S   S   S   S   S   S   S   S   S   S   W
|---------------------h16-------------------------------------h14-|-----------------||
|-----------------h14-----h14-----------------------------h14-----|----------------o||
|-------------h11-------------h11---------------------h11---------|-----------------||
|---------h14---------------------h14-------------h14-------------|-----------------||
|-----h12-----------------------------h12-----h12-----------------|----------------o||
|-h10-------------------------------------h10---------------------|-----------------||
|
|                                                                       PM|
|   E       E       Q               E       E       Q               E E E E Q  Q
|-----------------------------------------------------------------|---------0-------||
|-----------------------------------------------------------------|---------0------o||
|---7---------------------------------------7---------------------|---9-------------||
|---7---------------------------------------7---------------------|---9--------9----||
|---5---------------------------------------5---------------------|---7--------7---o||
|-----------------------------------------------------------------|---0-0-0---------||


  B5
  Gtr III
   S  S   S  S   S   S   S  S   S  S  S  S   S  S   S   S
|-16-17p=16p12------12--16-17p=16p12----12--16-17p=16p=12-|
|---------------17-------------------17-------------------|
|---------------------------------------------------------|
|---------------------------------------------------------|
|---------------------------------------------------------|
|---------------------------------------------------------|
|
| Gtr II
|  S  S   S  S   S   S   S  S   S  S  S  S   S  S   S   S
|------------------h12--------------------------------h12-|
|--------------h10-----h10------------------------h10-----|
|-----------h7-------------h7------------------h7---------|
|-------h11-------------------h11----------h11------------|
|----h9---------------------------h9----h9----------------|
|-h7---------------------------------h7-------------------|
|
| Gtr I
|  E      E      Q              E     E      Q
|---------------------------------------------------------|
|---------------------------------------------------------|
|--4----------------------------------4-------------------|
|--4----------------------------------4-------------------|
|--2----------------------------------2-------------------|
|---------------------------------------------------------|


  E5
   S  S  S  S  S  S  S  S  S  S  S  S  S  S  S  S
|----12-16-17p16p12----12-16-17p16p12----12-16-17p==|
|-17----------------17----------------17------------|
|---------------------------------------------------|
|---------------------------------------------------|
|---------------------------------------------------|
|---------------------------------------------------|
|
|  W
|---------------------------------------------------|
|---------------------------------------------------|
|---------------------------------------------------|
|---------------------------------------------------|
|---------------------------------------------------|
|---------------------------------------------------|
|
|              PM---|
|  E     E     E     E     Q           Q
|--------------------------0------------------------|
|--------------------------0------------------------|
|--------9------------------------------------------|
|--------9-----------------------------9------------|
|--------7-----------------------------7------------|
|--------0-----0-----0------------------------------|


  D5
    S   S   S   S   S   S   S   S   S   S   S   S   S   S   S   S
|--16p=12------12--16--17p=16p=12------12--16--17p=16p=12------12-|
|----------17----------------------17----------------------17-----|
|-----------------------------------------------------------------|
|-----------------------------------------------------------------|
|-----------------------------------------------------------------|
|-----------------------------------------------------------------|
|
|   S   S   S   S   S   S   S   S   S   S   S   S   S   S   S   S
|---------------------h16-------------------------------------h14-|
|-----------------h14-----h14-----------------------------h14-----|
|-------------h11-------------h11---------------------h11---------|
|---------h14---------------------h14-------------h14-------------|
|-----h12-----------------------------h12-----h12-----------------|
|-h10-------------------------------------h10---------------------|
|
|   E       E       Q               E       E       Q
|-----------------------------------------------------------------|
|-----------------------------------------------------------------|
|---7---------------------------------------7---------------------|
|---7---------------------------------------7---------------------|
|---5---------------------------------------5---------------------|
|-----------------------------------------------------------------|


  E5
   S  S  S  S  S  S  S  S  S  S  S  S  S  S  S  S
|-16-17p16p12----12-16-17p16p12----12-16-17p16p12--|
|-------------17----------------17-----------------|
|--------------------------------------------------|
|--------------------------------------------------|
|--------------------------------------------------|
|--------------------------------------------------|
|
|  W
|--------------------------------------------------|
|--------------------------------------------------|
|--------------------------------------------------|
|--------------------------------------------------|
|--------------------------------------------------|
|--------------------------------------------------|
|
|              PM---|
|  E     E     E     E     Q           Q
|--------------------------0-----------------------|
|--------------------------0-----------------------|
|--------9-----------------------------------------|
|--------9-----------------------------9-----------|
|--------7-----------------------------7-----------|
|--------0-----0-----0-----------------------------|


  B5
   S  S   S  S   S   S   S  S   S  S  S  S   S  S   S   S
|----12--16-17p=16p=12-----12--16-17p16p12-----12--16--17p|
|-17--------------------17------------------17------------|
|---------------------------------------------------------|
|---------------------------------------------------------|
|---------------------------------------------------------|
|---------------------------------------------------------|
|
|  S  S   S  S   S   S   S  S   S  S  S  S   S  S   S   S
|------------------h12--------------------------------h12-|
|--------------h10-----h10------------------------h10-----|
|-----------h7-------------h7------------------h7---------|
|-------h11-------------------h11----------h11------------|
|----h9---------------------------h9----h9----------------|
|-h7---------------------------------h7-------------------|
|
|  E      E      Q              E     E      Q
|---------------------------------------------------------|
|---------------------------------------------------------|
|--4----------------------------------4-------------------|
|--4----------------------------------4-------------------|
|--2----------------------------------2-------------------|
|---------------------------------------------------------|


  E5
   S  S  S  S  S  S  S  S  S  S  S  S  S  S  S  S
|-16p12----12-16-17p16p12----12-16-17p16p12----12--|
|-------17----------------17----------------17-----|
|--------------------------------------------------|
|--------------------------------------------------|
|--------------------------------------------------|
|--------------------------------------------------|
|
|  W
|--------------------------------------------------|
|--------------------------------------------------|
|--------------------------------------------------|
|--------------------------------------------------|
|--------------------------------------------------|
|--------------------------------------------------|
|
|              PM---|
|  E     E     E     E     Q           Q
|--------------------------0-----------------------|
|--------------------------0-----------------------|
|--------9-----------------------------------------|
|--------9-----------------------------9-----------|
|--------7-----------------------------7-----------|
|--------0-----0-----0-----------------------------|


  D5
    S   S   S   S   S   S   S   S   S   S   S   S   S   S   S   S
|--16--17p=16p=12------12--16--17p=16p=12------12--16--17p=16p=12-|
|------------------17----------------------17---------------------|
|-----------------------------------------------------------------|
|-----------------------------------------------------------------|
|-----------------------------------------------------------------|
|-----------------------------------------------------------------|
|
|   S   S   S   S   S   S   S   S   S   S   S   S   S   S   S   S
|---------------------h16-------------------------------------h14-|
|-----------------h14-----h14-----------------------------h14-----|
|-------------h11-------------h11---------------------h11---------|
|---------h14---------------------h14-------------h14-------------|
|-----h12-----------------------------h12-----h12-----------------|
|-h10-------------------------------------h10---------------------|
|
|   E       E       Q               E       E       Q
|-----------------------------------------------------------------|
|-----------------------------------------------------------------|
|---7---------------------------------------7---------------------|
|---7---------------------------------------7---------------------|
|---5---------------------------------------5---------------------|
|-----------------------------------------------------------------|


                        To Coda
  E5
   S  S  S  S  S  S  S  S H
|----12-16-17p16p12----12-0-----|
|-17----------------17----------|
|-------------------------------|
|-------------------------------|
|-------------------------------|
|-------------------------------|
|
|  W
|-------------------------------|
|-------------------------------|
|-------------------------------|
|-------------------------------|
|-------------------------------|
|-------------------------------|
|
|              PM---|
|  E     E     E     E    Q  Q
|-------------------------0-----|
|-------------------------0-----|
|--------9----------------------|
|--------9-------------------9--|
|--------7-------------------7--|
|--------0-----0-----0----------|


  D5 E5  B5              Bm              D5E5  B5
 2/4         4/4
           Gtr II
               ~~~                         PM--|
  +Q   E E     H       E e E E   E e E E E E E E
|-(0)------||------------------|-----------------|
|----------||------------9-----|-7-9-------------|
|----------||------------7-----|-7---------------|
|--------x-||--9-------x-----x-|-----x-x-9-9-9-9-|
|----------||------------------|-----------------|
|----------||------------------|-----------------|
|
| Gtr I
|                  PM--|   PM|       PM|
|  E E E E    +Q   E E E E E E   Q   E E E E E E
|----------||------------------|-----------------|
|----------||------------------|-----------------|
|--7s9-----||------------7-----|-7-------7s9-----|
|--7s9---9-||-(9)--------9-----|-9-------7s9---9-|
|--5s7---9-||-(9)--------------|---------5s7---9-|
|--------7-||-(7)--7-7-7---7-7-|-----7-7-------7-|


  B5         Bm                D5E5  B5             Bm              D5E5  B5
   ~~~                       PM------|    ~~~                         PM
   H       E E E E    E  Q   E E E E E    H       E E E E   E e E E E E E E
|------------------|-------------------|------------------|------------------|
|------------9-----|-12-12-------------|------------9-----|-7-9--------------|
|------------7-----|--7--7---7-7-------|------------9-----|-7-9-----7--------|
|--9-------x-----x-|-------------9-9-9-|--9-------x-----x-|-----x-x---9---9--|
|------------------|-------------------|------------------|------------------|
|------------------|-------------------|------------------|------------------|
|
|      PM--|   PM|         PM|                PM--|   PM|       PM|
| +Q   E E E E E E    Q    E E E E E E   +Q   E E E E E E   Q   E E E E E E
|------------------|-------------------|------------------|------------------|
|------------------|-------------------|------------------|------------------|
|------------7-----|--7--------7s9-----|------------7-----|-7-------7s9------|
|-(9)--------9-----|--9--------7s9---9-|-(9)--------9-----|-9-------7s9---9--|
|-(9)--------------|-----------5s7---9-|-(9)--------------|---------5s7---9--|
|-(7)--7-7-7---7-7-|-------7-7-------7-|-(7)--7-7-7---7-7-|-----7-7-------7--|


  B5         Bm             D5     E5  B5
   ~~~               ~
   H       E E E E   H       H
|------------------|--------16b17========|
|------------9-----|-9------17b19========|
|------------7-----|---------------------|
|--9-------x-----x-|-9-------------------|
|------------------|---------------------|
|------------------|---------------------|
|
|      PM--|   PM|      PM|
| +Q   E E E E E E   Q  E E  E     E E E
|------------------|---------------------|
|------------------|---------------------|
|------------7-----|-7-------7s====9-----|
|-(9)--------9-----|-9-------7s====9---9-|
|-(9)--------------|---------5s====7---9-|
|-(7)--7-7-7---7-7-|----7-7------------7-|


                                        D5  E5    B5
              \2      |
   +H        +Q.      E   E Q     E     +Q    +E  E
|-(16)------(16)r-------|----------------------------|
|-(17)------(17)r-------|----------------------------|
|-----------------------|--------[4]b6==(4)r==(4)-4--|
|-----------------------|----------------------------|
|---------------------xs|=xsx\-----------------------|
|-----------------------|----------------------------|
|
|  +Q   E E   E   E E E   E E  E  E      E  E  E  E
|-----------------------|----------------------------|
|-----------------------|----------------------------|
|-----------------------|----------------7s=9--------|
|--(9)------------9-----|-7-9------------7s=9-----9--|
|--(9)------------9-----|-7-9------------5s=7-----9--|
|--(7)--7-7---7-----7-7-|------7--7---------------7--|


  B5                                  D5  E5      B5
                   ~~~~~~~~       PM------------|
   E  E E E  E E E E   +E  +E   E S S S S S S S S S S
|--------------------|--------------------------------|
|--------------------|--------------------------------|
|--2-----------------|--------------------------6-7-9-|
|-----4-2-1----2-4---|----------------7---6h7-9-------|
|-----------/5-----5-|-(5)-(5)/---7h9---9-------------|
|--------------------|--------------------------------|
|
| +Q    E E  E E E E    E   E   E E   E   E   E   E
|--------------------|--------------------------------|
|--------------------|--------------------------------|
|--------------------|----------------7s==9-----------|
|-(9)----------9-----|--7---9---------7s==9-------9---|
|-(9)----------9-----|--7---9---------5s==7-------9---|
|-(7)---7-7--7---7-7-|----------7-7---------------7---|


   S  S  S S S  S S S  S S S S  S S S S
|----------7-9h10p9p7----7-9p7-10p7-9p7---|
|--7--9-10------------10------------------|
|-----------------------------------------|
|-----------------------------------------|
|-----------------------------------------|
|-----------------------------------------|
|
| +Q         E    E    E   E    E   E
|-----------------------------------------|
|-----------------------------------------|
|-----------------------------------------|
|-(9)----------------------9--------------|
|-(9)----------------------9--------------|
|-(7)--------7----7----7--------7---7-----|


                     D5       E5              B5
                      T     T         T
                      |-----6------|  |--3--|
   S S S  S S S  S S  S  S  S  S S S  S  S  S  T  T T T
|----7-9-10p9p7h10p7-14p10-14p10p9p7-13s14s13s14p10p9p7-|
|-10----------------------------------------------------|
|-------------------------------------------------------|
|-------------------------------------------------------|
|-------------------------------------------------------|
|-------------------------------------------------------|
|
|  E   E    E    E    E        E      E        E
|-------------------------------------------------------|
|-------------------------------------------------------|
|---------------------7s=======9------------------------|
|--7---9--------------7s=======9---------------9--------|
|--7---9--------------5s=======7---------------9--------|
|-----------7----7-----------------------------7--------|


   T                T               T               T
   |------6------|  |-----6------|  |-----6------|  |-----6------|
   S   S  S  S S S  S  S  S  S S S  S  S  S  S S S  S  S  S  S S S
|-13s=14s13p10p9p7-13s14s13p10p9p7-13s14s13p10p9p7-13s14s13p10p9p7-|
|------------------------------------------------------------------|
|------------------------------------------------------------------|
|------------------------------------------------------------------|
|------------------------------------------------------------------|
|------------------------------------------------------------------|
|
| +Q                E        E      E        E      E        E
|------------------------------------------------------------------|
|------------------------------------------------------------------|
|------------------------------------------------------------------|
|-(9)----------------------------------------9---------------------|
|-(9)----------------------------------------9---------------------|
|-(7)---------------7--------7------7---------------7--------7-----|


  A5       B5                Bb5       C5             G5
   T               T           T              T
   |-----6------|              |-----6-----|  |-----6-----|
   S  S  S  S S S  S  S S  S   S  S  S  S  E  S  S  S  S  E
|-13s14s13p10p9p7-13s16p7s10-/17s18s17p13p10-17s18s17p13p10-||
|-----------------------------------------------------------||
|-----------------------------------------------------------||
|-----------------------------------------------------------||
|-----------------------------------------------------------||
|-----------------------------------------------------------||
|
|                  PM---|
|  E        E      E    E      E        E     E        E
|-----------------------------------------------------------||
|-----------------------------------------------------------||
|-----------------------------------------------------------||
|--7--------9------------------8-------10--------------5----||
|--7--------9------------------8-------10--------------5----||
|------------------7----7------6--------8--------------3----||


   T               T              T              T
   |-----6------|  |-----6-----|  |-----6-----|  |-----6-----|
   S   S  S  S  E  S  S  S  S  E  S  S  S  S  E  S  S  S  S  E
|-17s=18s17p13p10-17s18s17p13p10-17s18s17p13p10-17s18s17p13p10--|
|---------------------------------------------------------------|
|---------------------------------------------------------------|
|---------------------------------------------------------------|
|---------------------------------------------------------------|
|---------------------------------------------------------------|
|
|                  PM------------|               PM------|
| +Q               E        E     E        E     E        E
|---------------------------------------------------------------|
|---------------------------------------------------------------|
|---------------------------------------------------------------|
|-(5)--------------------------------------5--------------------|
|-(5)--------------------------------------5--------------------|
|-(3)--------------3--------3-----3--------------3--------3-----|


                     Bb5 C5      G5
   |--3--|
   S  S  S  +E   E E +E   Q.          +E   S      +S   +E   E  E  E  E  E
|-17s18s17-(17)/---------20b22r====|=(20)-17b18==(17)r(17)----------------|
|----------------------------------|-----------------------18-------17----|
|----------------------------------|--------------------------17s15-------|
|----------------------------------|-----------------------------------14-|
|------------------0-(0)-----------|--------------------------------------|
|----------------------------------|--------------------------------------|
|
|                PM|                                    PM----|      PM|
|  E         E   E E  E   E    E E    +Q                E   E  E  E  E  E
|----------------------------------|--------------------------------------|
|----------------------------------|--------------------------------------|
|----------------------------------|--------------------------------------|
|--3---------5--------8--10------5-|--(5)-------------------------5-------|
|--3---------5--------8--10------5-|--(5)-------------------------5-------|
|----------------3-3--6---8------3-|--(3)---------------3---3--3-----3--3-|


              Bb5   C5          G5
    ~~~~
   +Q    Q     S  S  S  S  S  S  S  S
|-------------------------------------|
|-------------------------------------|
|-------------15p12-15p12----15p12----|
|-(14)---x/---------------12-------14-|
|-------------------------------------|
|-------------------------------------|
|
|        PM-|
|   E  E E  E  E     E     E     E
|-------------------------------------|
|-------------------------------------|
|-------------------------------------|
|---3--5-------8----10-----------5----|
|---3--5-------8----10-----------5----|
|--------3--3--6-----8-----------3----|


  G5
   S   S  S  S  S  S  S  S  S  S  S  S  S  S  S  S
|--------------------------------------------------|
|--------------------------------------------------|
|-15p=12-15p12----15p12----15p12-15p12----15p12----|
|--------------14-------14-------------14-------14-|
|--------------------------------------------------|
|--------------------------------------------------|
|
|               PM---------|            PM---|
| +Q            E     E     E     E     E     E
|--------------------------------------------------|
|--------------------------------------------------|
|--------------------------------------------------|
|-(5)-----------------------------5----------------|
|-(5)-----------------------------5----------------|
|-(3)-----------3-----3-----3-----------3-----3----|


                          Bb5  C5         G5
                                     |---3---|    |--3---|  |---3---|  |---3---|  |--3---|
   S  S  S  S  S  S  E     +E   +E   E  E    E    E   E  E  E  E    E  E  E    E  E  E   E
|-----------------------------------13---------|-----15----13------------------------------|
|-------------------13b15-(13)-(13)----15---14-|-13-----14----15---14-13-------------------|
|-15p12-15p12----------------------------------|-------------------------15---12-----------|
|-------------14p12----------------------------|---------------------------------15-12s==8-|
|----------------------------------------------|-------------------------------------------|
|----------------------------------------------|-------------------------------------------|
|
|              PM---|                                       PM--------|           PM---|
|  E     E     E     E      E    E   E    E      +Q         E    E     E    E     E    E
|----------------------------------------------|-------------------------------------------|
|----------------------------------------------|-------------------------------------------|
|----------------------------------------------|-------------------------------------------|
|--3-----5------------------8---10--------5----|-(5)------------------------5--------------|
|--3-----5------------------8---10--------5----|-(5)------------------------5--------------|
|--------------3-----3------6----8--------3----|-(3)--------3----3-----3----------3----3---|


  F5   G5        D5E5 D5 B5                                         D5E5  B5
   ~~~~~~~~~~
   Q    +E  E  E a  E  E  E    a  E   E  E a  E  E  E E E   Q   E E E Q   E
|---------------------------||----------------------------|-----------------|
|----------------8s10-10-10-||-8s10--10-10-8s10-10-10-9---|-7---9-7-9-7-----|
|-12---(12)sx\---9s11-11-11-||-9s11--11-11-9s11-11-11-9---|-7---9-7-9-7-----|
|---------------------------||--------------------------9-|-----9-7-9-7---9-|
|---------------------------||----------------------------|-----------------|
|---------------------------||----------------------------|-----------------|
|
|        PM-|
|  E E   E  E  E    E  E  E      +Q      E    E  E  E E E   E E E E E E E E
|---------------------------||----------------------------|-----------------|
|---------------------------||----------------------------|-----------------|
|--------------7s===9--7----||----------------------------|---------7s9-----|
|--3-5---------7s===9--7--9-||---(9)----------------9-----|-7-9-----7s9---9-|
|--3-5---------5s===7--5--9-||---(9)----------------9-----|-7-9-----5s7---9-|
|--------3--3-------------7-||---(7)-----7----7--7----7-7-|-----7-7-------7-|


  B5                             D5E5       B5
                                                                             ~~
   E  Q   E E E E E   E E E +E   E  Q.           +E       E  Q    E  Q       E
|-------------------|-------------------------|---------------------19b22---19-|
|-----7-------7-----|-------------------------|--------------------------------|
|-----7-------7---9-|-7-9-7-(7)\-x/14tr16-----|-(14tr16)-14/-------------------|
|--7------9-7---9-9-|-7-9-7-(7)\-x/-----------|--------------x/----------------|
|-------------------|-------------------------|--------------------------------|
|-------------------|-------------------------|--------------------------------|
|
| +Q    E E E E E E   E E E  E   E  E     E E    +Q          E  E E  E    E  E
|-------------------|-------------------------|--------------------------------|
|-------------------|-------------------------|--------------------------------|
|-------------------|------------7s=9---------|--------------------------------|
|-(9)---------9-----|-7-9--------7s=9-------9-|--(9)-----------------9---------|
|-(9)---------9-----|-7-9--------5s=7-------9-|--(9)-----------------9---------|
|-(7)---7-7-7---7-7-|-----7--7--------------7-|--(7)---------7--7-7-------7--7-|


              D5 E5    B5
    ~~~~
   +Q    E  E  E  E  E  E    E   E  E E  E  E  E  E
|-(19)-----------14-16-17-|-------------------------|
|----------12s15----------|-15----------------------|
|-------------------------|-----16----0-------------|
|-------------------------|--------14---12----------|
|-------------------------|----------------14-12-14-|
|-------------------------|-------------------------|
|
|   E  E E  E  E  E  E  E   +Q      E E  E  E  E  E
|-------------------------|-------------------------|
|-------------------------|-------------------------|
|--------------7s=9-------|-------------------------|
|---7--9-------7s=9-----9-|-(9)-------------9-------|
|---7--9-------5s=7-----9-|-(9)-------------9-------|
|--------7--7-----------7-|-(7)-----7-7--7-----7--7-|


                B5
 2/4           4/4
   +E  E  Q      W
|------------||-------------------|
|------------||-------------------|
|------------||-/4----------------|
|------------||-------------------|
|-(14)-------||-------------------|
|------x/----||-------------------|
|
|                PM------------|
|   Q     Q      E E E E E E E E
|------------||-------------------|
|------------||-------------------|
|------------||------4-----4------|
|---9--------||----4-----4-----4--|
|---9--------||--2-----3-----2----|
|---7--------||-------------------|


                                B5
      /1\   /1\ /1\   /1\ /1\   /1\     /1\       /1\
  +E  Q     E   Q     E   E     Q.      E   +Q    Q
|---------------------2h==3h==|=5p======3---(3)p==2-----|
|-----------4h==5-------------|-------------------------|
|-(4)h5-----------------------|-------------------------|
|-----------------------------|-------------------------|
|-----------------------------|-------------------------|
|-----------------------------|-------------------------|
|
|  PM-----|                     PM-----------------------
|  E  E   E E   E   E E   E     E   E E E    E  E E   E
|---------------0-------------|-------------------------|
|--4--4-------------0h1-------|-------------------------|
|-------------------------2---|-------4---------4-------|
|-----------------------------|-----4--------4--------4-|
|---------2-0-----------------|-2-------3---------2-----|
|-----------------------------|-------------------------|


                      B5
   ~~~                                    ~~~
  +W                   W                 +W
|-(2)---------------|-/7---------------|-(7)---------------|
|-------------------|------------------|-------------------|
|-------------------|------------------|-------------------|
|-------------------|------------------|-------------------|
|-------------------|------------------|-------------------|
|-------------------|------------------|-------------------|
|
|-------|              PM----------------------|
|  E  E E E E E E E    E E E E E E E E    E  E E E E E E E
|-----------0-------|------------------|-----------0-------|
|--4--4-------0h1---|------------------|--4--4-------0h1---|
|-----------------2-|------4-----4-----|-----------------2-|
|-------------------|----4-----4-----4-|-------------------|
|-------2-0---------|--2-----3-----2---|-------2-0---------|
|-------------------|------------------|-------------------|


                                                 N.C.
                                                   /1____\1
                                    ~~~~
   Q.     E  +Q     Q     +H       +H             +E    +Q       E   H
|------------------19--|-(19)-----(19)--------||-(19)--(19)-------------------|
|--------19-(19)-------|----------------------||------------------------------|
|-16-------------------|----------------------||------------------------------|
|----------------------|----------------------||------------------------------|
|----------------------|----------------------||------------------------------|
|----------------------|----------------------||------------------------------|
|
|                                                  PM---------|
|  Q   E  E  +E  E  Q     +H..           +E        E     S  S E  E  +E   E Q
|----------------------|----------------------||------------------------------|
|----------------------|----------------------||------------------------------|
|--4---4--5--(5)-5--4--|--(4)------------(4)/-||------------------------------|
|--4---4--5--(5)-5--4--|--(4)------------(4)/-||----------------11-(11)-12----|
|--2---2--3--(3)-3--2--|--(2)------------(2)/-||-----------------7--(7)--7----|
|----------------------|----------------------||---0-----0--0-0---------------|


  W                     W                       W
|---------------------|-----------------------|------------------|
|---------------------|-----------------------|------------------|
|---------------------|-----------------------|------------------|
|---------------------|-----------------------|------------------|
|---------------------|-----------------------|------------------|
|---------------------|-----------------------|------------------|
|
|                       PM----|                             ~
| E E E E E   +E  E E   E S S E  E  +E   E Q    E E E E E E Q
|---------------------|-----------------------|------------------|
|---------------------|-----------------------|------------------|
|---------------------|-----------------------|------------------|
|---------------------|---------12-(12)-11----|------------------|
|---------------------|----------7--(7)--7----|-------------5----|
|---0-3-0-5b6r(5)-3p0-|-0-0-0-0---------------|---0-3-0-6h7------|


  N.C.
  W                       W
|-----------------------|---------------------|
|-----------------------|---------------------|
|-----------------------|---------------------|
|-----------------------|---------------------|
|-----------------------|---------------------|
|-----------------------|---------------------|
|
| PM----|
| E S S E  E  +E   E Q    E E E E E   +E  E E
|-----------------------|---------------------|
|-----------------------|---------------------|
|-----------------------|---------------------|
|---------11-(11)-12----|---------------------|
|----------7--(7)--7----|---------------------|
|-0-0-0-0---------------|---0-3-0-5b6r(5)-3p0-|


                                           E5
                          \7________________/
                                                                   ~~
  W                       Q    +H.         +Q      Q   E  E  E     E
|-----------------------|---------------||------------------14b15-12--|
|-----------------------|---------------||---------------12-----------|
|-----------------------|---------------||----------------------------|
|-----------------------|-0----(0)------||-(0)------------------------|
|-----------------------|---------------||----------------------------|
|-----------------------|---------------||----------------------------|
|
| PM----|                                      PM--|   PM---------|
| E S S E  E  +E   E Q    W                 E  S S E E E  E  E     E
|-----------------------|---------------||----------------------------|
|-----------------------|---------------||----------------------------|
|-----------------------|---------------||-----------9----------------|
|---------12-(12)-11----|---------------||--9--------9----------------|
|----------7--(7)--7----|---------------||--7-------------------------|
|-0-0-0-0---------------|---------------||-----0-0-0---0--0--0-----0--|


     G5   F#5  F#5             F#5 E5   D
       ~~~~
      +Q         E       +E     H       E  E    E  E    E  E  E  E
|----(12)-------14b16---(14)----------|-------------------16-17-19-|
|-------------------------------------|--------17-19b21------------|
|-------------------------------------|---18-----------------------|
|-------------------------------------|----------------------------|
|-------------------------------------|----------------------------|
|-------------------------------------|----------------------------|
|
|         PM------------|                  PM--|        PM|
|  a   E  S  S  +S    S   E  a  Q  Q    E  S S  E  E    E  E  E  E
|-------------------------------------|----------------------------|
|-------------------------------------|-----------------------7----|
|-------------------------------------|------------7----------7----|
|-11s=12----11-(11)-------9--9s11--9--|------------7----------7----|
|--9s=10--9-----------7--(7)-7s=9--7--|-5--5-5--5-------5--5-----5S|
|-------------------------------------|----------------------------|


  B5           Bm11                E5
                                    ~~
   E  E    Q    E      +E   E  E    Q      E  E  +Q     +E   E
|-19-19b21-----16pb17r(16)-------|------------------------------|
|--------------------------17----|-17---------------------------|
|-----------------------------16-|--------16-16-(16)---(16)\----|
|--------------------------------|------------------------------|
|--------------------------------|------------------------------|
|--------------------------------|------------------------------|
|
|                                     PM--|       PM---------|
|  E  E    E E  Q           E  E    E S S  E  E   E  E   E   E
|---------------0-----------0----|------------------------------|
|---------------3-----------3----|------------------------------|
|-----4---------2-----------2----|------------9-----------------|
|-----4--------------------------|--9---------9-----------------|
|--2-------2-2-----------------2-|--7---------------------------|
|--------------------------------|----0-0--0------0--0---0---0--|


     G5 F#5          E5       F#5     E5        D
      E   E       E      E     E   E   E   E      Q       E   E   +E    E   E   E
|---------------<12>--------------<7>-----<7>-|-<12>---------<5>-(<5>)-----<7>----|
|-------<12>-----------<12>---<7>-----<7>-----|----------<5>-----------<7>-----<7>|
|---------------------------------------------|-----------------------------------|
|---------------------------------------------|-----------------------------------|
|---------------------------------------------|-----------------------------------|
|---------------------------------------------|-----------------------------------|
|
|         PM-----------|                             PM--|         PM--|
|  a  E   S   S  +S  S   E  a  Q       Q          E  S S  E   E    E    E   E   E
|---------------------------------------------|-----------------------------------|
|---------------------------------------------|-----------------------------7-----|
|---------------------------------------------|---------------7-------------7-----|
|-11s12------11-(11)-----9--9s11-------9------|---------------7-------------7-----|
|--9s10---9----------7--(7)-7s=9-------7------|---5--5-5--5--------5----5-------5S|
|---------------------------------------------|-----------------------------------|


  B5              Bm11         E5
                                                       ~~
   E   E   E   E   E  E Q      Q.       E  E  E  E     E
|-----<3>-<4>-<3>-<2>-0------|------------------14b15-12--|
|-<3>------------------------|---------------12-----------|
|----------------------------|----------------------------|
|----------------------------|----------------------------|
|-----------------------x\---|----------------------------|
|----------------------------|-0--------x/----------------|
|
|                                 PM--|    PM---------|
|  E   E   E   E   Q    E  E   E  S S E E  E  E  E     E
|------------------0----0----|----------------------------|
|------------------3----3----|----------------------------|
|------4-----------2----2----|----------9-----------------|
|------4---------------------|-9--------9-----------------|
|--2-------2---2-----------2-|-7--------------------------|
|----------------------------|----0-0-0----0--0--0-----0--|


     G5   F#5          E5      F#5        E5   D
       ~~~~                           ~~~~~
      +Q         Q              +E   +Q.       Q     E  E      +E   +Q     E
|----(12)-------17b19==========(17)-(17)r----|---------19b21==(19)r(19)---21-|
|--------------------------------------------|-------------------------------|
|--------------------------------------------|-------------------------------|
|--------------------------------------------|-------------------------------|
|--------------------------------------------|-------------------------------|
|--------------------------------------------|-------------------------------|
|
|         PM-------------|                       PM--|          PM-|
|  a   E  S  S  +S     S  E  a   Q        Q    E S S E  E       E    E  E  E
|--------------------------------------------|-------------------------------|
|--------------------------------------------|--------------------------7----|
|--------------------------------------------|----------7---------------7----|
|-11s=12----11-(11)-------9--9s=11--------9--|----------7---------------7----|
|--9s=10--9------------7-(7)-7s==9--------7--|-5-5-5-5----------5----5-----5S|
|--------------------------------------------|-------------------------------|


  B5                Bm11           E5
                                                  ~~~~
  S  E.       +Q     +E.  S E  E    Q      E  E  +Q.     E
|---21b22====(21)r==(21)-19------|-19----------------------|
|-----------------------------22-|-------------------------|
|--------------------------------|--------21-21-(21)-------|
|--------------------------------|-------------------------|
|--------------------------------|-------------------------|
|--------------------------------|-------------------------|
|
|                                     PM--|       PM-----|
| E        E   E  E   Q     E  E    E S S  E  E   E  E E E
|---------------------0-----0----|-------------------------|
|---------------------3-----3----|-------------------------|
|----------4----------2-----2----|------------9------------|
|----------4---------------------|--9---------9------------|
|-2------------2--2------------2-|--7----------------------|
|--------------------------------|----0-0--0------0--0-0-0-|


         |---3----|         |--3---|       |--3--|    |--3--|
      E  S  S     S   E     S   S  S    E  S  S  S E  S  S  S
|-------16h17p===16p==0----14h=16p14p===0-12h14p12p0-10h12p10p|
|-------------------------------------------------------------|
|-------------------------------------------------------------|
|-------------------------------------------------------------|
|-------------------------------------------------------------|
|-------------------------------------------------------------|
|
|        PM----------------|
|  a  E  S     S     +S  S  E        a  Q          Q
|-------------------------------------------------------------|
|-------------------------------------------------------------|
|-------------------------------------------------------------|
|-11s12-------11----(11)----9--------9s11----------9----------|
|--9s10--9---------------7-(7)-------7s=9----------7----------|
|-------------------------------------------------------------|


                                                          D.S. al Coda
                                                      ~~~~~~~
    |--3---|   |-3--|   |-3-|
  E S  S   S E S  S S E S S S E S   +S       +Q.     +E  +Q   +Q
|-0-9h10p==9p0-----------------------------|-----------------------------||
|--------------9h10p9p0-7h9p7p0------------|-----------------------------||
|-------------------------------6b7r(6)b7==|=(6)-----(6)-(6)--(6)r\------||
|------------------------------------------|-----------------------------||
|------------------------------------------|-----------------------------||
|------------------------------------------|-----------------------------||
|
|   PM-------|        PM|
| E S    S   E E      E E     E E             E  E E  E   Q    E    E
|------------------------------------------|--------------0----0---------||
|-----------------------------7------------|--------------3----3---------||
|--------------7--------------7------------|-----4--------2----2---------||
|--------------7--------------7------------|-----4-----------------------||
|-5-5----5---5--------5-5-------5S=========|==2----2--2-------------2----||
|------------------------------------------|-----------------------------||


  &
  B5                                   A/C#                                 E5(typeD2)
  Gtr I
   H                             +E     Q.                        +E  E E E H
   |                              |     |                          |  | | | |
   /                              /     /                          /  o / / /

  Gtr II
                                                       \1.5
   H..                                                +E          +Q    Q   H
|-(0)-------------------------------------------------(0)-------|-(0)------------|
|---------------------------------------------------------------|----------------|
|---------------------------------------------------------------|----------------|
|---------------------------------------------------------------|----------------|
|---------------------------------------------------------------|----------------|
|---------------------------------------------------------------|----------------|
|
| Gtr III
|  S    S   S  S   S   S   S  S   S  S  S   S   S  S   S      S    W
|--------------------h12------------------------------------h12-|----------------|
|----------------h10-----h10-------------------------h10--------|----------------|
|-------------h7-------------h7-------------------h7------------|----------------|
|---------h11-------------------h11-----------h11---------------|----------------|
|------h9---------------------------h9-----h9-------------------|----------------|
|-h7-----------------------------------h7-----------------------|----------------|


                                          A5(type 2)                          E5(type 2)
    H                              +E       Q.                       +E E E E H
    |                               |       |                         | | | | |
    /                               /       /                         / o / / /

    W                                                                 E E E E E E E E
|------------------------------------------------------------------|--------------------|
|------------------------------------------------------------------|--------------------|
|------------------------------------------------------------------|----7-7-6-4-4-------|
|------------------------------------------------------------------|--------------7p6---|
|------------------------------------------------------------------|--------------------|
|------------------------------------------------------------------|--------------------|
|
|   S   S   S   S   S   S   S   S   S   S   S    S   S   S   S   S    W
|---------------------h16--------------------------------------h14-|--------------------|
|-----------------h14-----h14------------------------------h14-----|--------------------|
|-------------h11-------------h11----------------------h11---------|--------------------|
|---------h14---------------------h14--------------h14-------------|--------------------|
|-----h12-----------------------------h12------h12-----------------|--------------------|
|-h10-------------------------------------h10----------------------|--------------------|


  B5                                   A/C#                                  E5(type 2)D
   H                            +E      Q.                    +E     E E E   H
   |                             |      |                      |     | | |   |
   /                             /      /                      /     o / /   /

                                                               |-3-|
  +E       E      E       E     +E      E      Q               S S S E E S S E E E E
|-----------------------------------------------------------|------------------------|
|-----------------------------------------------------------|------------------------|
|-----------------4-----------------------------------------|------------------------|
|-(6)h=====7--------------7-----(7)-----4h=====6------------|--4h6p4s2-4-2h4p2-------|
|-----------------------------------------------------------|------------------5-4p2-|
|-----------------------------------------------------------|------------------------|
|
|  S   S   S  S   S   S   S  S   S   S  S  S   S  S   S   S    W
|-------------------h12---------------------------------h12-|------------------------|
|---------------h10-----h10-------------------------h10-----|------------------------|
|------------h7-------------h7-------------------h7---------|------------------------|
|--------h11-------------------h11-----------h11------------|------------------------|
|-----h9----------------------------h9----h9----------------|------------------------|
|-h7-----------------------------------h7-------------------|------------------------|


                                                A5(type 2)
    H                                   +E        Q.
    |                                    |        |
    /                                    /        /

    E         +E       +E        E      +E        E        Q
|------------------------------------------------------------------------|
|------------------------------------------------------------------------|
|------------------------------------------------------------------------|
|------------------------------------------------------------------------|
|---4b5=======(4)r=====(4)-------2------(2)-------4--------2-------------|
|------------------------------------------------------------------------|
|
|   S      S   S    S   S    S   S   S   S    S   S    S   S   S   S   S
|--------------------------h16---------------------------------------h14-|
|---------------------h14------h14-------------------------------h14-----|
|-----------------h11--------------h11-----------------------h11---------|
|------------h14-----------------------h14---------------h14-------------|
|--------h12--------------------------------h12------h12-----------------|
|-h10-------------------------------------------h10----------------------|


                                                       1.,2.
           E5(type 2)   G5 F#5E               D5C#5 B5            G5 F#5  E
                     2/4           4/4
  +E E E E H          W              W                   W
   | | | | |
   / o / / /

                        Gtrs I, II
                                            PM
   E E E E Q  +Q      E  E  E E     +E  E E E E E E E   +E  E Q    E  E E E
|-------------------|-----------||--------------------|-----------------------||
|-------------------|---------9-||o-(9)-9-9-----------|-------------------9--o||
|-------------------|---------9-||--(9)-9-9-----------|-------------------9---||
|-------------------|---12s11-9-||--(9)-9-9---7s6---4-|-(4)-4-----12s11---9---||
|----------2--(2)/--|---10s=9-7-||o-(7)-7-7---5s4---2-|-(2)-2-2/--10s=9---7--o||
|--4-0-0-0-0--(0)---|-----------||----------7---------|-----------------------||


  3.
  B5       G5F#5 E5
   Q   E E E E E E   +W           +W
|------------------|------------|------------|
|------------------|------------|------------|
|------------------|------------|------------|
|-(4)--4-----------|------------|------------|
|-(2)--2---5-4---2-|-(2)--------|-(2)--------|
|--------0-3-2-0-0-|-(0)--------|-(0)--------|
|
| Gtr I
|  Q   E E E E E E   +W           +W
|------------------|------------|------------|
|------------------|------------|------------|
|------------------|------------|------------|
|-(4)--4-----------|------------|------------|
|-(2)--2---5-4---2-|-(2)--------|-(2)--------|
|--------0-3-2-0-0-|-(0)--------|-(0)--------|


   Q   Q   Q  E E    E  e q  H
|-----------------|---------------*|
|-----------------|---------------*|
|-----------------|--9--9---------*|
|-----------------|--9--9---------*|
|--x\--x\--7s=1---|--7--7---------*|
|--x\--x\--7s=1p0-|---------------*|
|
| +W                +Q    Q  H
|-----------------|---------------*|
|-----------------|---------------*|
|-----------------|---------------*|
|-----------------|---------------*|
|-(2)-------------|-(2)-----------*|
|-(0)-------------|-(0)-----------*|



Duration Legend
---------------
W - whole; H - half; Q - quarter; E - 8th; S - 16th; T - 32nd; X - 64th; a - acciaccatura
+ - note tied to previous; . - note dotted; .. - note double dotted
Uncapitalized letters represent notes that are staccato (1/2 duration)
Irregular groupings are notated above the duration line
Duration letters will always appear directly above the note/fret number it represents the
duration for.  Duration letters with no fret number below them represent rests.  Multi-
bar rests are notated in the form Wxn, where n is the number of bars to rest for.  Low
melody durations appear below the staff

Tablature Legend
----------------
 h   - hammer-on
 p   - pull-off
 b   - bend
 pb  - pre-bend
 r   - bend release (if no number after the r, then release immediately)
 /\  - slide into or out of (from/to "nowhere")
 s   - legato slide
 S   - shift slide
 - natural harmonic
[n]  - artificial harmonic
n(n) - tapped harmonic
 ~   - vibrato
 tr  - trill
 T   - tap
 TP  - trem. picking
 PM  - palm muting
\n/  - tremolo bar dip; n = amount to dip
 \n  - tremolo bar down
 n/  - tremolo bar up
/n\  - tremolo bar inverted dip
 =   - hold bend; also acts as connecting device for hammers/pulls
 <> - volume swell (louder/softer)
 x   - on rhythm slash represents muted slash
 o   - on rhythm slash represents single note slash

Misc Legend
-----------
 |  - bar
||  - double bar
||o - repeat start
o|| - repeat end
*|  - double bar (ending)
 :  - bar (freetime)
 $  - Segno
 &  - Coda
Tempo markers -  = BPM(8/16=s8/s16), where s8 = swing 8ths, s16 = swing 16ths


Joe Satriani albums
2004 Is There Love in Space?
2002 Strange Beautiful Music
2000 Engines of Creation
1998 Crystal Planet
1995 Joe Satriani
1993 Time Machine
1992 The Extremist
1989 Flying in a Blue Dream
1987 Surfing With the Alien
1986 Not of This Earth
Flying in a Blue Dream tabs
01Flying in a Blue Dream tabbass tab
02The Mystical Potato Head Groove Thing tabbass tab
03Can't Slow Down tabbass tab
04Headless tabbass tab
05Strange tabbass tab
06I Believe tabbass tab
07One Big Rush tabbass tab
08Big Bad Moon tabbass tab
09The Feeling tabbass tab
11Day at the Beach (New Rays from an Ancient Sun) tabbass tab
12Back to Shalla-Bal tabbass tab
13Ride tabbass tab
14Forgotten, Pt. 1 tabbass tab
15Forgotten, Pt. 2 tabbass tab
18Into the Light tabbass tab

 

1