Search tabs:
Browse artists: 0-9 | A | B | C | D | E | F | G | H | I | J | K | L | M | N | O | P | Q | R | S | T | U | V | W | X | Y | Z
/ The Mars Volta / De-Loused in the Comatorium (2003) / Eriatarka guitar tab

The Mars Volta - Eriatarka
Submitted By: El mezcalito
Album: De-Loused In The Comatorium
Transcribed by: Ulises Pedroza
Email: upedroza@yahoo.com.mx

Hagamos otro Nirvana en su cuarto de Didiana y Diega!

Tuning: EADGBE

Section 1 (Opening riff)
------------------------------------------------------------------------------
----0--0--0-------------------------------------------------------------------
-6--4--2--4-------------------------------------------------------------------
-0--x--x--x-------------------------------------------------------------------
-x--2--2--2-------------------------------------------------------------------
-7----------------------------------------------------------------------------

Section 2
0:02 - 0:20
------9-----7-----5-----------------------------------------------------------
--------0-----0-----0--------------7p5----0---0--------5---7p5---5------------
----7-----7-----7-----7------6h7-------0--4h6-4h6----6---6-----6---6------11--
---------------------------0-----------------------0--------------------------
-----------------------------------------------------------------------10-----
-7----------------------7--------7--------------------------------------------

-------14---------------------------------------------------------------------
-10-------10----12-14---------------------------------------------------------
----11-------11---------------------------------------------------------------
------------------------------------------------------------------------------
------------------------------------------------------------------------------
------------------------------------------------------------------------------

Section 3
0:20 - 0:47
-----7b8r7b8r7----------9----------------------------------14-------9---------
---------------------------10------------------------10-------10------10------
--------------------7----------6--9\7b8r7b8r7---/11-----11-------11------11---
--9--------------9----9-------------------------------------------------------
------------------------------------------------------------------------------
------------------------------------------------------------------------------

--------7b8r7b8r7----------9----------------------------------9-------14\-----
-----7------------------------10------------------------10------10------------
-/9--------------------7----------6--9\7b8r7b8r7---/11-----11------11---------
--------------------9----9----------------------------------------------------
------------------------------------------------------------------------------
------------------------------------------------------------------------------

Section 4
0:47 - 1:05
------5-----------------------------------------------------------------------
-0----0----5--------------5---7p5--------10----10----12----14-----------------
-7----7----7----6h7---4---6-------6------11----11----11----11-----------------
-0----0----0----0---0-----0---------0----x------------------------------------
-x----x----x----x------------------------10-10----10----10--------------------
-7----7----7----7-------------------------------------------------------------
Section 5
1:05 - 1:10
------------------------------------------------------------------------------
-----7-------7-------7-------7-------7-------7-------7-------7----------------
---------7-------7-------7-------7-------7-------7-------7-------7------------
-9-9---9---9---9---9---9---9---9---9---9---9---9---9---9---9---9--------------
------------------------------------------------------------------------------
------------------------------------------------------------------------------

Section 6 (Pre-Chorus)
1:11 - 1:22
------------------------------------------------------------------------------
------------------------------------------------------------------------------
-4-----6-----9-----11-----15--------------------------------------------------
-x-----x-----x-----x------x---------------------------------------------------
-2-----4-----7-----9------13--------------------------------------------------
------------------------------------------------------------------------------

Section 7 (Chorus)
1:22 - 1:46
------------------------------------------------------------------------------
----0--0-------------------------------------------------------10---13--------
-6--4--2-------------------------------------------------------x----x---------
-0--x--x-------------------------------------------------------7----10--------
-x--2--2--5-5-5-5-9-9-9-9-5-5----------------------------------x----x---------
-7----------------------------9b-------------------------------8----11--------

Section 8
2:05 - 2:23
------------------------------------------------------------------------------
-7------12------14---15----------7------5-------3-----------------------------
------------------------------------------------------------------------------
------------------------------------------------------------------------------
------------------------------------------------------------------------------
------------------------------------------------------------------------------

Section 9
3:09 - 3:15
------------------------------------------------------------------------------
------------------------------------------------------------------------------
------------------------------------------------------------------------------
-7--9-------------------------------------------------------------------------
------------------------------------------------------------------------------
------------------------------------------------------------------------------

Section 10
3:38 - 4:03
-------7----7------0----0--------------------------------------7--------------
-------7----7------5p0--3p0------0----2---3--------------------7--------------
-------7----7--0-----------------6----0---0-----2-0-2-------------------------
-7-9-9----9----5p4-------------0--------0---0-0-------------------------------
-----------------------------4------------------------------------------------
------------------------------------------------------------------------------


The Mars Volta albums
2005 Frances the Mute
2003 De-Loused in the Comatorium
De-Loused in the Comatorium tabs
01Son et Lumiere tabbass tab
02Inertiatic ESP tabbass tab
03Roulette Dares (The Haunt Of) tabbass tab
04Tira Me a las Araņas tabbass tab
05Drunkship of Lanterns tabbass tab
06Eriatarka tabbass tab
07Cicatriz ESP tabbass tab
08This Apparatus Must Be Unearthed tabbass tab
09Televators tabbass tab
10Take the Veil Cerpin Taxt tabbass tab

 

1