Search tabs:
Browse artists: 0-9 | A | B | C | D | E | F | G | H | I | J | K | L | M | N | O | P | Q | R | S | T | U | V | W | X | Y | Z
/ Metallica / Kill'em All (1983) / Phantom Lord guitar tab

                                 Phantom Lord - Metallica

Tabbed by Wim Deblauwe(wimdeb@hotmail.com)
If you like what I tabbed, please let me know. It's a lot of comfort to
know that my work is appriciated.


   fade in        
E||-------------------||---------------------|----------------------||
B||-------------------||---------------------|----------------------||
G||-------------------||*--2------------2----|--2------------2--2--*||
D||-------------------||*--2------------2----|--2------------2--2--*||
A||--0----------------||---0------------0----|--0------------0--0---||
E||-------------------||---------------------|----------------------||


|---------------||---------------------|----------------------||
|---------------||---------------------|----------------------||
|--2------------||*--4------------4----|--4------------4--4--*||
|--2------------||*--4------------4----|--4------------4--4--*||
|--0------------||---2------------2----|--2------------2--2---||
|---------------||---------------------|----------------------||


|--------------------|-----------------------------|---------------------------|
|--------------------|-----------------------------|---------------------------|
|--4-----------------|-----------------------7--9--|---------------------------|
|--4---------------7-|--7--9-9--7-9p7-9--9-9-5--7--|--7--9-9--7-9p7-9--9--7----|
|--2---------------5-|--5--7-7----7---7--7-7-------|--5--7-7----7---7--7--5----|
|--------------------|-----------------------------|---------------------------|


|-----------------------------|----------------------------|
|-----------------------------|----------------------------|
|-----------------------7--9--|----------------------------|
|--7--9-9--7-9p7-9--9-9-5--7--|--7--9-9--7-9p7-9--9-9-7----|
|--5--7-7----7---7--7-7-------|--5--7-7----7---7--7-7-5----|
|-----------------------------|----------------------------|

                                                           4x
||------------------------------|-----------------------------||
||------------------------------|-----------------------------||
||*-----------------------7--9--|----------------------------*||
||*--7--9-9--7-9p7-9--9-9-5--7--|--7--9-9--7-9p7-9--9-9-7----*||
||---5--7-7----7---7--7-7-------|--5--7-7----7---7--7-7-5-----||
||------------------------------|-----------------------------||


|-------------------|----------------------|-----------------------------|
|-------------------|----------------------|-----------------------------|
|--2----------------|--5--------4----------|-----------------------7--9--|
|--2----------------|--5--------4---5--5---|--7--9-9--7-9p7-9--9-9-5--7--|
|--0----------------|--3--------2---5--5---|--5--7-7----7---7--7-7-------|
|-------------------|---------------3--3---|-----------------------------|
 Sound is..          ..sound of metal nears


|----------------------------|-----------------------------|
|----------------------------|-----------------------------|
|----------------------------|-----------------------7--9--|
|--7--9-9--7-9p7-9--9-9-7----|--7--9-9--7-9p7-9--9-9-5--7--|
|--5--7-7----7---7--7-7-5----|--5--7-7----7---7--7-7-------|
|----------------------------|-----------------------------|


|----------------------------|-------------------|----------------------|
|----------------------------|-------------------|----------------------|
|----------------------------|--2----------------|--5--------4----------|
|--7--9-9--7-9p7-9--9-9-7----|--2----------------|--5--------4---5--5---|
|--5--7-7----7---7--7-7-5----|--0----------------|--3--------2---5--5---|
|----------------------------|-------------------|---------------3--3---|
                          Your body's..     ..taste of leather on your lips


|-----------------------------|----------------------------|
|-----------------------------|----------------------------|
|-----------------------7--9--|----------------------------|
|--7--9-9--7-9p7-9--9-9-5--7--|--7--9-9--7-9p7-9--9-9-7----|
|--5--7-7----7---7--7-7-------|--5--7-7----7---7--7-7-5----|
|-----------------------------|----------------------------|


|-----------------------------|----------------------------|
|-----------------------------|----------------------------|
|-----------------------7--9--|----------------------------|
|--7--9-9--7-9p7-9--9-9-5--7--|--7--9-9--7-9p7-9--9-9-7----|
|--5--7-7----7---7--7-7-------|--5--7-7----7---7--7-7-5----|
|-----------------------------|----------------------------|


|------------------------|------------------------|------------------------|
|------------------------|------------------------|------------------------|
|------------------------|------------------------|------------------------|
|-----7---5---7---4---5--|-----7---5---7---4---5--|-----7---5---7---4---5--|
|-----7---5---7---4---5--|-----7---5---7---4---5--|-----7---5---7---4---5--|
|--0--5---3---5---2---3--|--0--5---3---5---2---3--|--0--5---3---5---2---3--|
  Hear the cry of war      Louder than before      With his sword in hand


|------------------------|------------------------|------------------------|
|------------------------|------------------------|------------------------|
|------------------------|------------------------|------------------------|
|-----7---5---4---5---4--|-----7---5---7---4---5--|-----7---5---7---4---5--|
|-----7---5---4---5---4--|-----7---5---7---4---5--|-----7---5---7---4---5--|
|--0--5---3---2---3---2--|--0--5---3---5---2---3--|--0--5---3---5---2---3--|
  to control the land      Crushing metal strikes  on this frightning night

                                                  w/ fill 1   
|------------------------|------------------------|--------------------|
|------------------------|------------------------|--------------------|
|------------------------|------------------------|--------------------|
|-----7---5---7---4---5--|-----7---5---4---5---4--|--2--------------7--|
|-----7---5---7---4---5--|-----7---5---4---5---4--|--2--------------5--|
|--0--5---3---5---2---3--|--0--5---3---2---3---2--|--0-----------------|
 Fall onto your knees     for the Phantom Lord


 fill 1:

|--12-10-9----10-9-------9-------------------|
|----------12------12-10---12-10-9-12-10-9---|
|------------------------------------------9-|
|--------------------------------------------|
|--------------------------------------------|
|--------------------------------------------|

                                                           6x
|------------------------------|-----------------------------||
|------------------------------|-----------------------------||
|*-----------------------7--9--|----------------------------*||
|*--7--9-9--7-9p7-9--9-9-5--7--|--7--9-9--7-9p7-9--9-9-7----*||
|---5--7-7----7---7--7-7-------|--5--7-7----7---7--7-7-5-----||
|------------------------------|-----------------------------||


|-------------------|----------------------|-----------------------------|
|-------------------|----------------------|-----------------------------|
|--2----------------|--5--------4----------|-----------------------7--9--|
|--2----------------|--5--------4---5--5---|--7--9-9--7-9p7-9--9-9-5--7--|
|--0----------------|--3--------2---5--5---|--5--7-7----7---7--7-7-------|
|-------------------|---------------3--3---|-----------------------------|
 Victims falling..         ..dying pains


----------------------------|-----------------------------|
----------------------------|-----------------------------|
----------------------------|-----------------------7--9--|
--7--9-9--7-9p7-9--9-9-7----|--7--9-9--7-9p7-9--9-9-5--7--|
--5--7-7----7---7--7-7-5----|--5--7-7----7---7--7-7-------|
----------------------------|-----------------------------|


----------------------------|-------------------|----------------------|
----------------------------|-------------------|----------------------|
----------------------------|--2----------------|--5--------4----------|
--7--9-9--7-9p7-9--9-9-7----|--2----------------|--5--------4---5--5---|
--5--7-7----7---7--7-7-5----|--0----------------|--3--------2---5--5---|
----------------------------|-------------------|---------------3--3---|
                           Fists of terror..         ..nothing you can do


-----------------------------|----------------------------|
-----------------------------|----------------------------|
-----------------------7--9--|----------------------------|
--7--9-9--7-9p7-9--9-9-5--7--|--7--9-9--7-9p7-9--9-9-7----|
--5--7-7----7---7--7-7-------|--5--7-7----7---7--7-7-5----|
-----------------------------|----------------------------|


-----------------------------|----------------------------|
-----------------------------|----------------------------|
-----------------------7--9--|----------------------------|
--7--9-9--7-9p7-9--9-9-5--7--|--7--9-9--7-9p7-9--9-9-7----|
--5--7-7----7---7--7-7-------|--5--7-7----7---7--7-7-5----|
-----------------------------|----------------------------|



------------------------|------------------------|------------------------|
------------------------|------------------------|------------------------|
------------------------|------------------------|------------------------|
-----7---5---7---4---5--|-----7---5---7---4---5--|-----7---5---7---4---5--|
-----7---5---7---4---5--|-----7---5---7---4---5--|-----7---5---7---4---5--|
--0--5---3---5---2---3--|--0--5---3---5---2---3--|--0--5---3---5---2---3--|



------------------------|------------------------|------------------------|
------------------------|------------------------|------------------------|
------------------------|------------------------|------------------------|
-----7---5---4---5---4--|-----7---5---7---4---5--|-----7---5---7---4---5--|
-----7---5---4---5---4--|-----7---5---7---4---5--|-----7---5---7---4---5--|
--0--5---3---2---3---2--|--0--5---3---5---2---3--|--0--5---3---5---2---3--|


                                                  begin solo I  
------------------------|------------------------|-------------------|
------------------------|------------------------|-------------------|
------------------------|------------------------|-------------------|
-----7---5---7---4---5--|-----7---5---4---5---4--|--2----------------|
-----7---5---7---4---5--|-----7---5---4---5---4--|--2----------------|
--0--5---3---5---2---3--|--0--5---3---2---3---2--|--0----------------|



------------------------|------------------------|------------------------|
------------------------|------------------------|------------------------|
-----5---4---5----------|-----5---4---5----------|-----5---4---5----------|
-----5---4---5---4---5--|-----5---4---5---4---5--|-----5---4---5---4---5--|
-----3---2---3---4---5--|-----3---2---3---4---5--|-----3---2---3---4---5--|
--0--------------2---3--|--0--------------2---3--|--0--------------2---3--|



------------------------|------------------------|------------------------|
------------------------|------------------------|------------------------|
-----5---4---5----------|-----5---4---5---5---4--|-----5---4---5---5---4--|
-----5---4---5---4---5--|-----5---4---5---5---4--|-----5---4---5---5---4--|
-----3---2---3---4---5--|-----3---2---3---3---2--|-----3---2---3---3---2--|
--0--------------2---3--|--0---------------------|--0---------------------|



------------------------|------------------------|------------------------|
------------------------|------------------------|------------------------|
-----5---4---5---5---4--|-----5---4---5---5---4--|-----5---4---5----------|
-----5---4---5---5---4--|-----5---4---5---5---4--|-----5---4---5---4---5--|
-----3---2---3---3---2--|-----3---2---3---3---2--|-----3---2---3---4---5--|
--0---------------------|--0---------------------|--0--------------2---3--|



------------------------|------------------------|------------------------|
------------------------|------------------------|------------------------|
-----5---4---5----------|-----5---4---5----------|-----5---4---5----------|
-----5---4---5---4---5--|-----5---4---5---4---5--|-----5---4---5---4---5--|
-----3---2---3---4---5--|-----3---2---3---4---5--|-----3---2---3---4---5--|
--0--------------2---3--|--0--------------2---3--|--0--------------2---3--|



------------------------|------------------------|------------------------|
------------------------|------------------------|------------------------|
-----5---4---5---5---4--|-----5---4---5---5---4--|-----5---4---5---5---4--|
-----5---4---5---5---4--|-----5---4---5---5---4--|-----5---4---5---5---4--|
-----3---2---3---3---2--|-----3---2---3---3---2--|-----3---2---3---3---2--|
--0---------------------|--0---------------------|--0---------------------|


                         slower(tempo=66)
------------------------|--------------------|
------------------------|--------------------|
-----5---4---5---5---4--|--------------------|
-----5---4---5---5---4--|--5----4------------|
-----3---2---3---3---2--|--------------------|
--0---------------------|--------------------|

play 8x
||------------------------------------||
||---------------------------------0--||
||*------0-------0-------0-----------*||
||*--------2-------2-------2-----2---*||
||-----2-------2-------0-------0------||
||---0-------3-------2-------1--------||

                                      4x faster (tempo=96)     
||------------------------------------||----------------------|
||------------------------------------||----------------------|
||*----------------------------------*||----------------------|
||*----------------------------------*||----------------------|
||---2-2-2-2-2-2-2-2-0-0-0-0-0-0-0-0--||--2----2----2----2----|
||---0-0-0-0-3-3-3-3-2-2-2-2-1-1-1-1--||--0----0----0----0----|


                       faster (tempo=152)   begin solo II
----------------------|-------------------|--------------------------|
----------------------|-------------------|--------------------------|
----------------------|--2----------------|--5--------4--------------|
----------------------|--2----------------|--5--------4----5----5----|
--2----2----2----2----|--0----------------|--3--------2----5----5----|
--0----0----0----0----|-------------------|----------------3----3----|



----------------------------------|----------------------------------|
----------------------------------|----------------------------------|
----------------------------------|----------------------------------|
----------------------------------|----------------------------------|
----------------------------------|----------------------------------|
--0-0-0-0-0-0-0-0-0-0-0-0-0-0-0-0-|--0-0-0-0-0-0-0-0-0-0-0-0-0-0-0-0-|



-------------------|--------------------------|
-------------------|--------------------------|
--2----------------|--5--------4--------------|
--2----------------|--5--------4----5----5----|
--0----------------|--3--------2----5----5----|
-------------------|----------------3----3----|



----------------------------------|----------------------------------|
----------------------------------|----------------------------------|
----------------------------------|----------------------------------|
----------------------------------|----------------------------------|
----------------------------------|----------------------------------|
--0-0-0-0-0-0-0-0-0-0-0-0-0-0-0-0-|--0-0-0-0-0-0-0-0-0-0-0-0-0-0-0-0-|



-------------------|--------------------------|
-------------------|--------------------------|
--2----------------|--5--------4--------------|
--2----------------|--5--------4----5----5----|
--0----------------|--3--------2----5----5----|
-------------------|----------------3----3----|



----------------------------------|----------------------------------|
----------------------------------|----------------------------------|
----------------------------------|----------------------------------|
----------------------------------|----------------------------------|
----------------------------------|----------------------------------|
--0-0-0-0-0-0-0-0-0-0-0-0-0-0-0-0-|--0-0-0-0-0-0-0-0-0-0-0-0-0-0-0-0-|



-------------------|--------------------------|
-------------------|--------------------------|
--2----------------|--5--------4--------------|
--2----------------|--5--------4----5----5----|
--0----------------|--3--------2----5----5----|
-------------------|----------------3----3----|



----------------------------------|----------------------------------|
----------------------------------|----------------------------------|
----------------------------------|----------------------------------|
----------------------------------|----------------------------------|
----------------------------------|----------------------------------|
--0-0-0-0-0-0-0-0-0-0-0-0-0-0-0-0-|--0-0-0-0-0-0-0-0-0-0-0-0-0-0-0-0-|



-------------------|------------------|-----------------------------|
-------------------|------------------|-----------------------------|
-------------------|------------------|-----------------------7--9--|
--2----------------|------------------|--7--9-9--7-9p7-9--9-9-5--7--|
--2----------------|------------------|--5--7-7----7---7--7-7-------|
--0----------------|------------------|-----------------------------|



----------------------------|-----------------------------|
----------------------------|-----------------------------|
----------------------------|-----------------------7--9--|
--7--9-9--7-9p7-9--9-9-7----|--7--9-9--7-9p7-9--9-9-5--7--|
--5--7-7----7---7--7-7-5----|--5--7-7----7---7--7-7-------|
----------------------------|-----------------------------|



----------------------------|-------------------|----------------------|
----------------------------|-------------------|----------------------|
----------------------------|--2----------------|--5--------4----------|
--7--9-9--7-9p7-9--9-9-7----|--2----------------|--5--------4---5--5---|
--5--7-7----7---7--7-7-5----|--0----------------|--3--------2---5--5---|
----------------------------|-------------------|---------------3--3---|
                            The leathered..           ..has never failed


-----------------------------|----------------------------|
-----------------------------|----------------------------|
-----------------------7--9--|----------------------------|
--7--9-9--7-9p7-9--9-9-5--7--|--7--9-9--7-9p7-9--9-9-7----|
--5--7-7----7---7--7-7-------|--5--7-7----7---7--7-7-5----|
-----------------------------|----------------------------|



-----------------------------|----------------------------|-------------------|
-----------------------------|----------------------------|-------------------|
-----------------------7--9--|----------------------------|--2----------------|
--7--9-9--7-9p7-9--9-9-5--7--|--7--9-9--7-9p7-9--9-9-7----|--2----------------|
--5--7-7----7---7--7-7-------|--5--7-7----7---7--7-7-5----|--0----------------|
-----------------------------|----------------------------|-------------------|
                                                           Smoke is..


----------------------|-----------------------------|
----------------------|-----------------------------|
--5--------4----------|-----------------------7--9--|
--5--------4---5--5---|--7--9-9--7-9p7-9--9-9-5--7--|
--3--------2---5--5---|--5--7-7----7---7--7-7-------|
---------------3--3---|-----------------------------|
..volume metal sound


----------------------------|-----------------------------|
----------------------------|-----------------------------|
----------------------------|-----------------------7--9--|
--7--9-9--7-9p7-9--9-9-7----|--7--9-9--7-9p7-9--9-9-5--7--|
--5--7-7----7---7--7-7-5----|--5--7-7----7---7--7-7-------|
----------------------------|-----------------------------|



----------------------------|------------------------|------------------------|
----------------------------|------------------------|------------------------|
----------------------------|------------------------|------------------------|
--7--9-9--7-9p7-9--9-9-7----|-----7---5---7---4---5--|-----7---5---7---4---5--|
--5--7-7----7---7--7-7-5----|-----7---5---7---4---5--|-----7---5---7---4---5--|
----------------------------|--0--5---3---5---2---3--|--0--5---3---5---2---3--|



------------------------|------------------------|------------------------|
------------------------|------------------------|------------------------|
------------------------|------------------------|------------------------|
-----7---5---7---4---5--|-----7---5---4---5---4--|-----7---5---7---4---5--|
-----7---5---7---4---5--|-----7---5---4---5---4--|-----7---5---7---4---5--|
--0--5---3---5---2---3--|--0--5---3---2---3---2--|--0--5---3---5---2---3--|



------------------------|------------------------|------------------------|
------------------------|------------------------|------------------------|
------------------------|------------------------|------------------------|
-----7---5---7---4---5--|-----7---5---7---4---5--|-----7---5---4---5---4--|
-----7---5---7---4---5--|-----7---5---7---4---5--|-----7---5---4---5---4--|
--0--5---3---5---2---3--|--0--5---3---5---2---3--|--0--5---3---2---3---2--|



------------------------|------------------------|------------------------|
------------------------|------------------------|------------------------|
------------------------|------------------------|------------------------|
-----7---5---7---4---5--|-----7---5---7---4---5--|-----7---5---7---4---5--|
-----7---5---7---4---5--|-----7---5---7---4---5--|-----7---5---7---4---5--|
--0--5---3---5---2---3--|--0--5---3---5---2---3--|--0--5---3---5---2---3--|


                                       
------------------------|
------------------------|
------------------------|
-----7---5---4---5---4--|
-----7---5---4---5---4--|
--0--5---3---2---3---2--|



-------------------|-------------------|-----------------|-------------------|
-------------------|-------------------|-----------------|-------------------|
-------------------|--4----------------|-----------------|--7----------------|
--2----------------|--4----------------|--5--------------|--7----------------|
--2----------------|--2----------------|--5--------------|--5----------------|
--0----------------|-------------------|--3--------------|-------------------|
                          Fall to your  knees            and bow to the Phantom

  (trem. strum, pick fast up and down)
-------------------|------------------|------------------|------------------|
-------------------|------------------|------------------|------------------|
--9----------------|------------------|------------------|------------------|
--9----------------|------------------|------------------|------------------|
--7----------------|------------------|------------------|------------------|
-------------------|------------------|------------------|------------------|
Lord


---------------------------|-------------------||
---------------------------|-------------------||
---------------------------|-------------------||
-----7----5----4----5---4--|--2----------------||
-----7----5----4----5---4--|--2----------------||
--0-----0----0----0--------|--0----------------||




Solo I 

--22p20p17----17-22p20p17----17-22p20p17----17-22p20p17-----|
-----------21-------------20-------------20-------------22--|
------------------------------------------------------------|
------------------------------------------------------------|
------------------------------------------------------------|
------------------------------------------------------------|



--22b--22r-----22b--22b--22p19-|-----19-22p19------------------------------12-|
-------------------------------|--22----------22-19----19-22p19---------15----|
-------------------------------|--------------------21----------21-19---------|
-------------------------------|----------------------------------------------|
-------------------------------|----------------------------------------------|
-------------------------------|----------------------------------------------|



--15p12----12-15p12-------------------------------|
--------15----------15-12----12-15p12-------------|
--------------------------14b---------14p12----12-|
--------------------------------------------14----|
--------------------------------------------------|
--------------------------------------------------|



------------------------14-15-|
--15---15---15--15------------|
--14b--14b--14b-14b-----------|
------------------------------|
------------------------------|
------------------------------|



--17p14-15----------------------------------------|
-----------17-19p15-17-14-15p14----14-------------|
--------------------------------16----16-14-13-14-|
--------------------------------------------------|
--------------------------------------------------|
--------------------------------------------------|



-------------------------------------------|---------------------------------|
-------------------------------------------|---------------------------------|
--16p14p13-14p13p11-13--11-9-8h9p8---------|---------------------------7-9p7-|
-----------------------------------9-------|-------------7-7-9p7---7-9-------|
-------------------------------------9--9\-|-----5-5-7/9---------9-----------|
-------------------------------------------|--7------------------------------|



-------------------12-|
----------------------|
--9r--------7---------|
----------------------|
----------------------|
----------------------|


--19p15p12-19p15p12-19p15p12-19p15p12-20p15p12-20p15p12-20p15p12-20p15p12-|
--------------------------------------------------------------------------|
--------------------------------------------------------------------------|
--------------------------------------------------------------------------|
--------------------------------------------------------------------------|
--------------------------------------------------------------------------|



--22p15p12-22p15p12-22p15p12-22p15p12-20p15p12-20p15p12-20p15p12-20p15p12-|
--------------------------------------------------------------------------|
--------------------------------------------------------------------------|
--------------------------------------------------------------------------|
--------------------------------------------------------------------------|
--------------------------------------------------------------------------|



--18p12-18t19p15p12-20p12-20t20p15p12-22p12-22t22p15p12-20p12-20t20p15p12-|
--------------------------------------------------------------------------|
--------------------------------------------------------------------------|
--------------------------------------------------------------------------|
--------------------------------------------------------------------------|
--------------------------------------------------------------------------|



--19p15p12-20p15p12-19p15p12-20p15p12-19p15p12-20p15p12-19p15p12---|
-------------------------------------------------------------------|
-------------------------------------------------------------------|
-------------------------------------------------------------------|
-------------------------------------------------------------------|
-------------------------------------------------------------------|



-----12--15p12----12-15p12--------------------------|
--15b----------15b---------15-12----12-15p12--------|
---------------------------------14----------14--12-|
----------------------------------------------------|
----------------------------------------------------|
----------------------------------------------------|



--------------------------------------------------|
--------------------------------------------------|
--12-12-14p12-------------------------------------|
--------------14-12----12-14p12-------------------|
--------------------14----------14-12-10----------|
-----------------------------------------12-12-12-|



----------------------------------|---------------------------------|
----------------------------------|--------7-10-7-------------------|
----------------------------7-9p7-|--x-7-9b-------9-7---7-9p7-9r--7-|
--------------7-7-9p7---7-9-------|-------------------9-------------|
------5-7-7/9---------9-----------|---------------------------------|
--5/7-----------------------------|---------------------------------|


                                             8x                    4x
|------------------------||--------------------||--------------------||
|------------------------||--------------------||--------------------||
|------------------------||*------------------*||*------------------*||
|--9----7----2----1------||*------------------*||*------------------*||
|------------------------||--------------------||--------------------||
|--------------------3-2-||--------------------||--------------------||


Solo II:


|------------------|------------------|------------------|-------------------12-|
|------------------|------------------|------------------|----------------15----|
|------------------|------------------|------------------|----------------------|
|------------------|------------------|------------------|----------------------|
|------------------|------------------|------------------|----------------------|
|------------------|------------------|------------------|----------------------|


|--15p12-12-15p12-12-12----------------------------|
|-----------------------15----12-15p12----12-15p12-|
|--------------------------14b---------14b---------|
|--------------------------------------------------|
|--------------------------------------------------|
|--------------------------------------------------|


--15-12---------------------------------------|-------------------|
--------15b15----12-12-15---------------------|-------------------|
--------------14b---------14-12----12-14-12\--|--9----------------|
--------------------------------14------------|-------------------|
----------------------------------------------|-------------------|
----------------------------------------------|-------------------|


------------------|--22----22----22----22\-15h17p15-|
------------------|---------------------------------|
------------------|---------------------------------|
------------------|---------------------------------|
------------------|---------------------------------|
------------------|---------------------------------|


----22------12--7-8p7p5----|------------------|------------------|
---------------------------|------------------|------------------|
---------------------------|------------------|------------------|
---------------------------|------------------|------------------|
---------------------------|------------------|------------------|
---------------------------|------------------|------------------|


------12-12-----12--12--15-12-------15-12-------|
--15--------15----------------15-12-------15-12-|
------------------------------------------------|
------------------------------------------------|
------------------------------------------------|
------------------------------------------------|


------------------------------------|------------------|------------------|
--12-12-15p12-----------------------|------------------|------------------|
--------------14-12----12-14r-------|------------------|------------------|
--------------------14--------------|------------------|------------------|
------------------------------------|------------------|------------------|
------------------------------------|------------------|------------------|


--------------------------------------------------|
-----12-15p12-17p12----12-15p12-17p12----12-15p12-|
--14b---------------14----------------14b---------|
--------------------------------------------------|
--------------------------------------------------|
--------------------------------------------------|


--------------------------------------------------|
--17p12----12-15p12-17p12----12-15p12-17p12-12-12-|
--------14b---------------14b---------------------|
--------------------------------------------------|
--------------------------------------------------|
--------------------------------------------------|


--15p12----12-15p12-------------------------------|
--------15----------15p12----12-15p12-------------|
--------------------------14b---------14-12----14-|
--------------------------------------------14----|
--------------------------------------------------|
--------------------------------------------------|


------------------------------------------------|--------------------|
------------------------------------------------|--------------------|
--12-12-14p12-----------------------------------|--------------------|
--------------14p12----12-14p12-----------------|--------------------|
--------------------14----------14-12-10--12p10-|--------------------|
------------------------------------------------|--12----------------|


Metallica albums
2003 St. Anger
1998 Garage Inc.
1997 Reload
1996 Load
1991 Metallica (Black Album)
1988 And Justice For All
1987 Garage Days Re-Revisited
1986 Master of Puppets
1984 Ride The Lightening
1983 Kill'em All
Kill'em All tabs
01Hit The Lights tabbass tab
02The Four Horsemen tabbass tab
03Motorbreath tabbass tab
04Jump In The Fire tabbass tab
05(Anesthesia)-Pulling Teeth tabbass tab
06Whiplash tabbass tab
07Phantom Lord tabbass tab
08No Remorse tabbass tab
09Seek & Destroy tabbass tab
10Metal Militia tabbass tab

 

1