Search tabs:
Browse artists: 0-9 | A | B | C | D | E | F | G | H | I | J | K | L | M | N | O | P | Q | R | S | T | U | V | W | X | Y | Z
/ Metallica / Metallica (Black Album) (1991) / Wherever I May Roam guitar tab

MetallicA_Wherever_I_May_Roam
#-------------------------------PLEASE-NOTE------------------------------------#
#This file is the author's own work and represents their interpretation of the #
#song. You may only use this file for private study, scholarship, or research. #
#------------------------------------------------------------------------------#
#       This song was tabbed by zEIO (zeio@excite.com) ICQ # 30271800          #
#          If you have any questions or comments please contact me :)          #
#------------------------------------------------------------------------------#
                                 MetallicA
                          "Where ever I may roam"
                           From: The Black Album
                  

 INTRO

||---------------------------------------------------------------------||
||o-------5-5/6-5---------8-8/10--6---5-----5-5/6-5-------------------o||
||---------------------------------------------------------------------||
||--------2-2/3-2---------5-5/7---3---2-----2-2/3-2--------------------||
||o-------------------------------------------------------------------o||
||--0---------------0---------------0----------------------------------||

|---------------------------------------------------------------|
|-------5-5/6-5----------8-8/10-10\6----5-----------------------|
|---------------------------------------------------------------|
|-------2-2/3-2----------5-5/7---7\3----2-----------------------|
|---------------------------------------------------------------|
|-0----------------0--------------------0-----------------------|


|--------||----------------------------------------------------------||-------------|
|--------||o--------------------------------------------------------o||-------------|
|--------||----------------------------------------------------------||-------------|
|--------||------------------------5-5/7-----------------------------||-------------|
|--------||o-------7-7^8-7---------------8---7-----7-7^8-7----------o||-7--8--9--10-|
|-5/20\--||--0-------------------------------0-----------------------||-5--6--7--8--|


                 TR~                               TR~    
||---------------------------------------------------------------------||
||o-------------------------------------------------------------------o||
||---------------------------------------------------------------------||
||-------------------------5-5/7------9--------------------------------||
||o-2-----7-7^8-7(8)-7-----------8----7-----7-7^8-7(8)-7---8---9---10-o||
||--0---0------------0---0------------0---0------------5---6---7---8---||

  P.M----     TR~                               TR~                    P.M------
|---------|-----------------------------------------------------------|---------|
|---------|-----------------------------------------------------------|---------|
|---------|-----------------------------------------------------------|---------|
|---------|----------------5-5/7------9-------------------------------|---------|
|-5-6-7-8-|-7^8-7(8)-7-----------8----7-----7-7^8-7(8)-7---8---9---10-|-5-6-7-8-|
|---------|----------0---0------------0---0------------5---6---7---8--|---------|

 E5                               F5
|-------------------------------------------------------------------|
|-------------------------------------------------------------------|
|-------------------------------------------------------------------|
|2------------------------------------3-----------------------------|
|2----------------------------------3-------------------------------|
|0--------------------------------1---------------------------------|


 1st VERSE

 Em                               F5
|-------------------------------------------------------------------|
|-------------------------------------------------------------------|
|------0------------------------------------------------------------|
|----2--------------------------------3-----------------------------|
|--2--------------------------------3-------------------------------|
|0--------------------------------1---------------------------3/10\-|
        And the road becomes my bride     And the road becomes my 

      
(E5)                              (Bb5)
bride  I have stripped of all but pride,        so in her I do  con-

(A5)                              (Bb5)                         
 fide,   and she keeps me satis-  fied          Gives me all I need
 

(E5)                              (Bb5)        
|---------0----------------0-----------------------------------------|
|-------------0----------------0------------3----------------3-------|
|-----------------------------------------------3----------------3---|
|---------------------------------------3----------------3-----------|
|-----2----------------2------------1----------------1---------------|
|-0----------------0-------------------------------------------------|
         And with dust in throne I crave, only knowledge will  I save 

   
(G5)                              (Bb5)           
|-------------------------------------------------------------------|
|--------3----------------3----------------3----------------3-------|
|------------3----------------3----------------3----------------3---|
|--------------------------------------3----------------3-----------|
|----1----------------1------------1----------------1---------------|
|3----------------3-------------------------------------------------|
           To the game you stay a slave             rover, wanderer



 CHORUS
 
  nomad, vagabond  call me what you will                          TR~
|----------------------------------|---------------------------------|
|----------------------------------|---------------------------------|
|----------------------------------|---------------------------------|
|----------------------------------|------5-5/7------9---------------|
|-1---1---2---3----5-6-7-8-7^8-7---|7-----------8----7-----7-7^8-7(8)|
|----------------------------------|0---0------------0---0-----------|

                                                 TR~
|--------------------------------------------------------------------|
|--------------------------------------------------------------------|
|--------------------------------------------------------------------|
|------------------3---3-------3--------3---2^3-2(3)-2---2-------2---|
|-7---8---9---10---3---3-------3--------3------------2---2-------2---|
|-5---6---7---8----1---1---1-1-1----1-1-1------------0---0---0-0-0---|

               TR~                               TR~
|---------------------------------------------------|
|---------------------------------------------------|
|------------------3---3-------3--------3-----------|
|-----2---2^3-2(3)-3---3-------3--------3---2^3-2(3)|
|-----2------------1---1---1-1-1----1-1-1-----------|
|-0-0-0---------------------------------------------|

(A5)                               (G5)
 Anywhere I roam                   Where I lay my head is home, yeah


 BREAK RIFF
                TR~                               TR~                    P.M------ 
||---------------------------------------------------------------------||---------|
||o-------------------------------------------------------------------o||---------|
||---------------------------------------------------------------------||---------|
||-------------------------5-5/7------9--------------------------------||---------|
||o-2-----7-7^8-7(8)-7-----------8----7-----7-7^8-7(8)-7---8---9---10-o||-5-6-7-8-|
||--0---0------------0---0------------0---0------------5---6---7---8---||---------|


 2nd VERSE

E5                               F5
|-------------------------------------------------------------------|
|-------------------------------------------------------------------|
|-------------------------------------------------------------------|
|2-------------------------------------3----------------------------|
|2-----------------------------------3------------------------------|
|0---------------------------------1--------------------------3/10\-|
        And the earth becomes my throne     And the earth becomes my

(E5)                              (Bb5)
 throne   I adapt  to  the    un- known         Under wandering stars i've
 
(A5)                              (Bb5)  
grown  by my self   but   not     alone         I ask no one


(E5)                              (Bb5)
|---------0----------------0-----------------------------------------|
|-------------0----------------0------------3----------------3-------|
|-----------------------------------------------3----------------3---|
|---------------------------------------3----------------3-----------|
|-----2----------------2------------1----------------1---------------|
|-0----------------0-------------------------------------------------|
         And my ties are severed  clean  the  less I have the more I 


   
(G5)                              (Bb5)           
|-------------------------------------------------------------------|
|--------3----------------3----------------3----------------3-------|
|------------3----------------3----------------3----------------3---|
|--------------------------------------3----------------3-----------|
|----1----------------1------------1----------------1---------------|
|3----------------3-------------------------------------------------| BACK TO CHOURUS
 gain        off the beaten path  reign             rover, wanderer


 INTERLUDE

              TR~      TR~
|-----------------------------------------------------------------------|
|-----------------------------------------------------------------------|
|-------------------------------9-------------------------8-9-11/12-8---|
|------------------6-7-6(7)-9-10-----------------6-7--9-10--------------|
|-2----/7-7-8-7(8)-------------------2-------7-8------------------------|
|-0---0------------------------------0---0-0----------------------------|

              TR~       TR~
|-----------------------------------------------------------------------|
|-------------------------------8-------------------------7-8-10-12-7---|
|------------------4-5-4(5)-8-9-9----------------4-5--8-9-8-9-11-12-8---|
|---------6-7-6(7)-6-7-6(7)-9-10-------------6-7-6-7--9-10--------------|
|-2---2---7-8-7(8)-------------------2---2---7-8------------------------|
|-0---0-0----------------------------0---0-0----------------------------|
* two guitars

                                TR~
|----------------------------------------------------|
|----------------------------------------------------|
|----------------------------------------------------|
|--3---3-------3--------3---2^3-2(3)-2---2-------2---|
|--3---3-------3--------3------------2---2-------2---|
|--1---1---1-1-1----1-1-1------------0---0---0-0-0---|

              TR~                               TR~
|---------------------------------------------------|
|---------------------------------------------------|
|------------------3---3-------3--------3-----------|
|-----2---2^3-2(3)-3---3-------3--------3---2^3-2(3)|
|-----2------------1---1---1-1-1----1-1-1-----------|
|-0-0-0---------------------------------------------|

(A5)                               (G5)
 Anywhere I roam                   Where I lay my head is  home,yeah


 SOLO


 OUTRO CHOURUS
                                TR~
|----------------------------------------------------|
|----------------------------------------------------|
|----------------------------------------------------|
|--3---3-------3--------3---2^3-2(3)-2---2-------2---|
|--3---3-------3--------3------------2---2-------2---|
|--1---1---1-1-1----1-1-1------------0---0---0-0-0---|

              TR~                               TR~
|---------------------------------------------------|
|---------------------------------------------------|
|------------------3---3-------3--------3-----------|
|-----2---2^3-2(3)-3---3-------3--------3---2^3-2(3)|
|-----2------------1---1---1-1-1----1-1-1-----------|
|-0-0-0---------------------------------------------|


(A5)                              (G5)
 Anywhere I roam                   Where I lay my head is home

(C5)                               (B5)             (Bb5)
 Carved upon my stone           my body lie, but    still I roam yeah yeah

Then play break riff with parts of the solo and fade out


         Title : Wherever I May Roam: Solos
        Artist : Metallica
         Album : Metallica
Transcribed by : Christian Theves
        Website: http://come.to/kirkhammett
==========================================================================
Here's the main and the outro solo of "Wherever I May Roam".

Solo 1

 w/wha

|--12----(12)\---------------------------------------|
|--12----(12)\---------------------------------------|
|---------------9-~-~-~----------9--10b11-~--~--~----|
|------------------------10--------------------------|
|----------------------------------------------------|
|----------------------------------------------------|


|-------------------------------------------------------------|
|---------------9--12p9--9--12p9--9----10--9------------------|
|--r10---11b13--------------------------------10p9--10p9--10--|
|-------------------------------------------------------------|
|-------------------------------------------------------------|
|-------------------------------------------------------------|



|--12\------------------------------|---------------------------|
|--12\------------------------------|--15b17r15b17-~-~-~--------|
|-------9-~-~--------9--9b10--~--~--|---------------------------|
|----------------10-----------------|---------------------------|
|-----------------------------------|---------------------------|
|-----------------------------------|---------------------------|


    T*     T*           T      T	    T      T            T      T

|--17p16--17p16p13p12--17p16--17p16p13p12--17p16--17p16p13p12--17p16--17p16p13p12--|
|----------------------------------------------------------------------------------|
|----------------------------------------------------------------------------------|
|----------------------------------------------------------------------------------|
|----------------------------------------------------------------------------------|
|----------------------------------------------------------------------------------|
 *Tap w/edge of pick

    T      T            T      T            T      T            T      T

|--17p16--17p16p13p12--17p16--17p16p13p12--17p16--17p16p13p12--17p16--17p16p13p12--|
|----------------------------------------------------------------------------------|
|----------------------------------------------------------------------------------|
|----------------------------------------------------------------------------------|
|----------------------------------------------------------------------------------|
|----------------------------------------------------------------------------------|



|--------------------------------------------------------------------|
|--15----(15)p13p12--15------(15)p13p12--16p12h17p15----(15)p12--12--|
|--------------------------------------------------------------------|
|--------------------------------------------------------------------|
|--------------------------------------------------------------------|
|--------------------------------------------------------------------|


								       __________
|----------------------------------------------------------------|-------------------|
|-15p12--17p12---(15)p12--12--15p13p12--13p12--------------------|-15b17---------r15-|
|---------------------------------------------14--13--14b16--r13-|-------------------|
|----------------------------------------------------------------|-------------------|
|----------------------------------------------------------------|-------------------|
|----------------------------------------------------------------|-------------------|



|-----------------|--------------------------------|----------------------------|
|--15b17-~--~--~--|--(15)-~--~--~--15b17--r15--12--|--15----(15) w/bar ~-~------|
|-----------------|--------------------------------|----------------------------|
|-----------------|--------------------------------|----------------------------|
|-----------------|--------------------------------|----------------------------|
|-----------------|--------------------------------|----------------------------|



|----------16--17--17--17--|--(17)--16---------------------------|
|--16--17------------------|------------17p16--16-~-~--16--17p16\|
|--------------------------|-------------------------------------|
|--------------------------|-------------------------------------|
|--------------------------|-------------------------------------|
|--------------------------|-------------------------------------|


                                                      w/bar
|--------------------------------------|--------------------------|------------------|
|--12----(12)-~-~----12----12--12--12--|--12/15--15--15-~-~--~----|--(15)-~-~--------|
|--------------------12----12--12--12--|--12/15--15--15-~-~--~----|--(15)-~-~--------|
|--------------------12----12--12--12--|--12/15--15--15-~-~--~----|--(15)-~-~--------|
|--------------------------------------|--------------------------|------------------|
|--------------------------------------|--------------------------|------------------|


		     trem. picking-----|          w/bar                     

|------------------|----------------17/-|-19----19-~-~---|--22pbr--22pbr--b22-~------|
|--15--15--12--13--|--14-/-16-/-18--17/-|-19----19-~-~---|---------------------------|
|--15--15--12--13--|--14-/-16-/-18--17/-|-19----19-~-~---|---------------------------|
|------------------|--------------------|----------------|---------------------------|
|------------------|--//---//---//--//--|----------------|---------------------------|
|------------------|--------------------|----------------|---------------------------|



|-19p16----------19--19p16----------19--19p16--16----------19--19p16--16----------16-|
|--------17--17-------------17--17-----------------17--17-----------------17--17-----|
|------------------------------------------------------------------------------------|
|------------------------------------------------------------------------------------|
|------------------------------------------------------------------------------------|
|------------------------------------------------------------------------------------|


|--19p16--16\13--13--13h16p13--12--12--13p12-----12-----------------|
|--------------------------------------------15------15p13--13--13--|
|-------------------------------------------------------------------|
|-------------------------------------------------------------------|
|-------------------------------------------------------------------|
|-------------------------------------------------------------------|


|---------------------------|--------------------|
|--13h15p13---(13)-~--~--~--|--(13)--~--~--~--~--|
|---------------------------|--------------------|
|---------------------------|--------------------|
|---------------------------|--------------------|
|---------------------------|--------------------|


Outro Solo
 
w/ wah

|--16--16p13p12--16p13p12--16----12--16p13p12--16--(16)p13p12--|
|--------------------------------------------------------------|
|--------------------------------------------------------------|
|--------------------------------------------------------------|
|--------------------------------------------------------------|
|--------------------------------------------------------------|


                  T*                                       T*     T*
|--16p13p12--16--17p16--16p13p12--16p13p12--16p13p12--16--17p16--17p16p13p12--|
|-----------------------------------------------------------------------------|
|-----------------------------------------------------------------------------|
|-----------------------------------------------------------------------------|
|-----------------------------------------------------------------------------|
|-----------------------------------------------------------------------------|
                 *Tap w/edge of pick


|--13h16p13p12--13--13p12------12--13p12------12-----------------|
|--------------------------15-------------15------15p13------12--|
|--------------------------------------------------------15------|
|----------------------------------------------------------------|
|----------------------------------------------------------------|
|----------------------------------------------------------------|



|-------------------------------------------|-----------------------------|
|--13p12---------12-~-~--12-----------------|--15b17----15b17----15b17----|
|---------14p13--------------14p13--14-~-~--|-----------------------------|
|-------------------------------------------|-----------------------------|
|-------------------------------------------|-----------------------------|
|-------------------------------------------|-----------------------------|


                               T*     T*                     T*     T*
|------------------------12-|-17p16--17p16p13p12--16p13p12--17p16--17p16p13p12--16p13p12-|
|-15b17----15b17--r16-~-----|------------------------------------------------------------|
|---------------------------|------------------------------------------------------------|
|---------------------------|------------------------------------------------------------|
|---------------------------|------------------------------------------------------------|
|---------------------------|------------------------------------------------------------|
                              *Tap w/edge of pick


    T*     T*
|--17p16--17p16p13--12--16p13p12--16p13p12--12----12-~-~--------|
|--------------------------------------------------------13p12--|
|---------------------------------------------------------------|
|---------------------------------------------------------------|
|---------------------------------------------------------------|
|---------------------------------------------------------------|



|--------------------------------------------------------|
|--13p12-------------------12--13p12-----------------12--|
|---------14p13--14----14-------------14p13--14--14------|
|--------------------------------------------------------|
|--------------------------------------------------------|
|--------------------------------------------------------|



|----------------------------------------------------------|
|--13p12-------------------12--13p12-------------------12--|
|---------14p13--14----14-------------14p13--14----14------|
|----------------------------------------------------------|
|----------------------------------------------------------|
|----------------------------------------------------------|



|--------------------------------------------------------------|
|--13p12------13p12------12--13--13p12------12-------------12--|
|---------14---------14-----------------14------14p13--14------|
|--------------------------------------------------------------|
|--------------------------------------------------------------|
|--------------------------------------------------------------|



|--------------------------------------------------|
|--15pb17-~-~--15pb17-~-~--15pb17-~-~--15pb17-~-~--|
|--------------------------------------------------|
|--------------------------------------------------|
|--------------------------------------------------|
|--------------------------------------------------|


   Begin fade

|--16-16-16-16-16-16-16-16-16-16-16-16-17-17-17-17-17-17-17-17-17-17-17-17--|
|---------------------------------------------------------------------------|
|---------------------------------------------------------------------------|
|---------------------------------------------------------------------------|
|---------------------------------------------------------------------------|
|---------------------------------------------------------------------------|



|--19-19-19-19-19-19-19-19-19-19-19-19-22-22-22-22-22-22-22-22-22-22-22-17--|
|---------------------------------------------------------------------------|
|---------------------------------------------------------------------------|
|---------------------------------------------------------------------------|
|---------------------------------------------------------------------------|
|---------------------------------------------------------------------------|



|--22b24----22b24----22b24----22b24----|--22b24----22b24-~--~--~--~--|
|--------------------------------------|-----------------------------|
|--------------------------------------|-----------------------------|
|--------------------------------------|-----------------------------|
|--------------------------------------|-----------------------------|
|--------------------------------------|-----------------------------|



|------------------12------------------12---------------|
|--9h10--12--9h10------9h10--12--9h10------9h10--12--9h-|
|-------------------------------------------------------|
|-------------------------------------------------------|
|-------------------------------------------------------|
|-------------------------------------------------------|



|------------12------------------12------------------|
|--10--9h10------9h10--12--9h10------9h10--12--9h10--|
|----------------------------------------------------|
|----------------------------------------------------|
|----------------------------------------------------|
|----------------------------------------------------|



|-12---------------------------------------------|-12-~-~--12---------12-~-~--12----|
|-----9h10--12--12p10--10----9h10--12--9h10p9----|-----------9--10------------9--10-|
|----------------------------------------------9-|----------------------------------|
|------------------------------------------------|----------------------------------|
|------------------------------------------------|----------------------------------|
|------------------------------------------------|----------------------------------|



|-12--------------------12-------------------|-12---------------------10-~-~----12--13-|
|-----9--10--12--9--10------9--10--12--9--10-|-----9--10--12--10--12--------15---------|
|--------------------------------------------|-----------------------------------------|
|--------------------------------------------|-----------------------------------------|
|--------------------------------------------|-----------------------------------------|
|--------------------------------------------|-----------------------------------------|



|----16----13----12----12h13p12------12------------------|
|--------------------------------15------15--13--12--13--|
|--------------------------------------------------------|
|--------------------------------------------------------|
|--------------------------------------------------------|
|--------------------------------------------------------|



|-------------------------------------------------------12--|
|--13p12------------13p12---------13p12-------------12------|
|---------14p13h14---------14p13---------14p13--14----------|
|-----------------------------------------------------------|
|-----------------------------------------------------------|
|-----------------------------------------------------------|



|------------------------------------------------|
|------------------------13p12-------------------|
|--12---------12----------------14p13--14----12--|
|-------14p12------------------------------------|
|------------------------------------------------|
|------------------------------------------------|


      trem.bar  1  1                 1  1
                \/ \/                \/ \/ 
|------------------------------------------|--------------------------------------------|
|-13p12----------------13p12---------------|-13p12-------------13--13p12-------------12-|
|--------14p13--14p12---------14p13--14p12-|--------14p13--14-------------14p13--14-----|
|------------------------------------------|--------------------------------------------|
|------------------------------------------|--------------------------------------------|
|------------------------------------------|--------------------------------------------|



|--------12---------12---------12----------12---13-|-13--12--13-12-12-13-12-12-13-12-13-|
|-10h13------10h13------10h13-------10h13----------|------------------------------------|
|--------------------------------------------------|------------------------------------|
|--------------------------------------------------|------------------------------------|
|--------------------------------------------------|------------------------------------|
|--------------------------------------------------|------------------------------------|


|--16--12--13--16--16b17--16--17--19--16--20--17--21--18--22--|
|-------------------------------------------------------------|
|-------------------------------------------------------------|
|-------------------------------------------------------------|
|-------------------------------------------------------------|
|-------------------------------------------------------------|


				      Fade out
|--22b24----22b24----22b24-r22-b24------------|
|---------------------------------------------|
|---------------------------------------------|
|---------------------------------------------|
|---------------------------------------------|
|---------------------------------------------|


Metallica albums
2003 St. Anger
1998 Garage Inc.
1997 Reload
1996 Load
1991 Metallica (Black Album)
1988 And Justice For All
1987 Garage Days Re-Revisited
1986 Master of Puppets
1984 Ride The Lightening
1983 Kill'em All
Metallica (Black Album) tabs
01Enter Sandman tabbass tab
02Sad But True tabbass tab
03Holier Than Thou tabbass tab
04The Unforgiven tabbass tab
05Wherever I May Roam tabbass tab
06Don't Tread On Me tabbass tab
07Through The Never tabbass tab
08Nothing Else Matters tabbass tab
09Of Wolf And Man tabbass tab
10The God That Failed tabbass tab
11My Friend Of Misery tabbass tab
12The Struggle Within tabbass tab

 

1