Search tabs:
Browse artists: 0-9 | A | B | C | D | E | F | G | H | I | J | K | L | M | N | O | P | Q | R | S | T | U | V | W | X | Y | Z
/ Nirvana / Bleach (1989) / Love Buzz guitar tab

NIRVANA - Bleach
Tabbed by Kieren Hudson.
if anyone has comments, or suggestions mail me at kieren@mail.org

TABULATURE DEFINITION
)     =  bend
/     =  slide up
\     =  slide down
~~    =  vibrato
PM    =  palm mute
)r    =  bend and release 
^     =  hammeron/pulloff
x/x   =  pickscrape
*     =  uncontrolled feedback
NH    =  natural harmonic



Love Buzz
This was recorded tuned up half a step. 
The way it is tabbed here sounds 1/2 step lower than it is on the CD.
 intro (bass tabbed for guitar)
e----------------------------------------------------------------------------
b----------------------------------------------------------------------------
g----------------------------------------------------------------------------
d----------------------------------------------------------------------------                                   
a------------------4^5^4-----------------4^5^4---------------4^5^4-----------
e--5--x--3--5--6----------5--x--3--5--6---------5---3--5--6---------5--------

e----------------------------------------------------------------------------
b----------------------------------------------------------------------------
g----------------------------------------------------------------------------
d----------------------------------------------------------------------------
a------------4^5^4-----------------------------------------------------------
e--3--5--6-------------------------------------------------------------------

 then
e----------------------------------------------------------------------------
b--2-----------------2---------------2-2-2-----------------2-2-2-------------
g--2-----------------2---------------2-2-2-----------------2-2-2-------------                     
d--2-----------------2---------------2-2-2-----------------2-2-2-------------
a--0-----------------0---------------0-0-0-----------------0-0-0-------------
e----------------------------------------------------------------------------


e-----0--0--5^3^0-------------------------0--0--5^3^0------------------------
b--2----------------5^3^0--------------2----------------5^3^0----------------
g--2-----------------------4^2^0-------2------------------------4^2^0--------
d--2-----------------------------------2-------------------------------------
a--0-----------------------------------0-------------------------------------
e----------------------------------------------------------------------------

e-----0--0--5^3^0-------------------------0--0--5^3^0------------------------
b--2----------------5^3^0--------------2----------------5^3^0----------------
g--2-----------------------4^2^0-------2------------------------4^2^0--------
d--2-----------------------------------2-------------------------------------
a--0-----------------------------------0-------------------------------------
e----------------------------------------------------------------------------


e----------------------------------------------------------------------------
b----------------------------------------------------------------------------
g--------------6^7^6--------------6^7^6--------------6^7^6--------------6^7^6                         
d--7--5--7--8---------7--5--7--8---------7--5--7--8---------7--5--7--8-------
a----------------------------------------------------------------------------
e----------------------------------------------------------------------------

e-----0--0--5^3^0-------------------------0--0--5^3^0------------------------
b--2----------------5^3^0--------------2----------------5^3^0----------------
g--2-----------------------4^2^0-------2------------------------4^2^0--------
d--2-----------------------------------2-------------------------------------
a--0-----------------------------------0-------------------------------------
e----------------------------------------------------------------------------

e-----0--0--5^3^0------------------------------------------------------------
b--2----------------5^3^0--------------2-------------------------------------
g--2-----------------------4^2^0-------2-------------------------------------
d--2-----------------------------------2-------------------------------------
a--0-----------------------------------0-------------------------------------
e-------------------------------------------(5)/17---------------------------

 chorus
e----------------------------------------------------------------------------
b--2-----------------2---------------2-2-2-2------------------2--------------
g--2-----------------2---------------2-2-2-2------------------2--------------                     
d--2-----------------2---------------2-2-2-2------------------2--------------
a--0-----------------0---------------0-0-0-0------------------0--------------
e----------------------------------------------------------------------------

 1st solo
e----------------------------)-----------------------------------------------
b--/8--8--7--7--7--7--5--7--7--7--7--7--7--5--5---------)--3--0--------------
g------------------------------------------------7--7--5----------)-----)----
d----------------------------------------------------------------7--7--7-----
a----------------------------------------------------------------------------
e----------------------------------------------------------------------------

e----------------------------------------------------------------------------
b-----------------------------)----------------------------------------------
g--9\7--6--5--0-----0-----5--7--7--6-----------------------------------------
d----------------0-----7--------------5--7---------------)-------------------
a----------------------7--------------------6--3--0--3--7~~--7--5--3---------
e---------------------------------------------------------------------5--3---

e----------------------------------------------------------------------------
b------------------------------6/8--8/10--10\8-------------------------------
g-------------------2--4--4/5--5/7--7/-9---9\7-------------------------------
d-----------2--2/4-----------------------------------------------------------
a------)---------------------------------------------------------------------
e--5--5--5------------------------------------------------------------------- 

 2nd solo                                                 )
e----------------------------------12-12-12-12-12-12-12-12-12-12-12-12-------
b---------)-------------------13/--13-13-13-13-13-13-13-13-13-13-13-13-------
g-----5--7--7--5-------------------------------------------------------------
d--7--------------7--5--7--7-------------------------------------------------
a----------------------------------------------------------------------------
e----------------------------------------------------------------------------

e----------------------------------------------------------------------------
b----------------------------------------------------------------------------
g----------------------------------------------------------------------------
d------------)--)-----------------------------------------9--9-10-10-10-12---
a--3--5--3--5--5--5--------------------0--0------5--7--7--9--9-10-10-10-12---
e--------------------3--3--2--0--2--3--------/7------------------------------

e----------------------------------------------------------------------------
b--(3)-----------------------------------------------------------------------
g--(2)-----------------------------------------------------------------------
d------12-12-14-15-15-15-15-17\----------------------------------------------
a------12-12-14-15-15-15-17-17\----------------------------------------------
e----------------------------------------------------------------------------

 end
e----------------------------------------------------------------------------
b--2--2-2-2-2-2-2-2-2-2-2-2-2-2-2-2-2--2-------------------------------------
g--2--2-2-2-2-2-2-2-2-2-2-2-2-2-2-2-2--2-------------------------------------
d--2--2-2-2-2-2-2-2-2-2-2-2-2-2-2-2-2--2-------------------------------------
a--0--0-0-0-0-0-0-0-0-0-0-0-0-0-0-0-0--0-------------------------------------
e---------------------------------------------------------------------------- 
   PM--------------------------------


Nirvana albums
1994 MTV Unplugged In New York
1993 In Utero
1992 Incesticide
1991 Nevermind
1989 Bleach
Bleach tabs
01Blew tabbass tab
02Floyd The Barber tabbass tab
03About A Girl tabbass tab
04School tabbass tab
05Love Buzz tabbass tab
06Paper Cuts tabbass tab
07Negative Creep tabbass tab
08Scoff tabbass tab
09Swap Meet tabbass tab
10Mr Moustache tabbass tab
11Sifting tabbass tab
12Big Cheese tabbass tab
13Downer tabbass tab

 

1