Search tabs:
Browse artists: 0-9 | A | B | C | D | E | F | G | H | I | J | K | L | M | N | O | P | Q | R | S | T | U | V | W | X | Y | Z
/ Nirvana / Nevermind (1991) / Polly guitar tab

Polly                                
  By Kurt Cobain
  Tune normally
  
  (acoustic guitar)
  rhy.fig. 1
  ------------------------------------------------
  ------------------------------------------------
  ----0-------------------------------------------
  ----2----x----0-----5----5---------0------------
  ----2----x----0-----5----5----x----0------------
  ----0----x----0-----3----3----x-----------------


  ------------------------------------------------
  ----3----3--------------------------------------
  ----2----2----x-----5----5----5-----------------
  ----0----0----x-----5----5----5-----0-----------
  --------------x-----3----3----3-----0-----------
  ------------------------------------0----------- 

  ------------------------------------------------
  ------------------------------------------------
  ----0-------------------------------------------
  ----2----x----0-----5----5---------0------------
  ----2----x----0-----5----5----x----0------------
  ----0----x----0-----3----3----x-----------------

  ------------------------------------------------
  ----3----3-------------------------------------- 
  ----2----2----x-----5----5----5-----------------  
  ----0----0----x-----5----5----5-----0----------- 
  --------------x-----3----3----3-----0----------- 
  ------------------------------------0-----------   
  
  w/rhy.fig 1
  
  Polly wants a cracker,
  I think I should get off of her first.
  I think she wants some water 
  to put out the blow torch

  rhy.fig 2
  ------------------------------------------------ 
  ---3--------------------------------------------
  ---2----x----5-----5---5------------------------
  ---0----x----5-----5---5----0-------------------
  --------x----3-----3---3----0-------------------
  ----------------------------0-------------------
  
  ------------------------------------------------ 
  ------------------------------------------------
  ---0----0-----x-----3----3---3------------------   *it may be also (355xxx)
  ---0----0-----x-----3----3---3------------------    or (3x00xx) 
  ---2----2-----x-----1----1---1------------------  
  --*3----3---------------------------------------
  

  ------------------------------------------------ 
  ---3----2---------------------------------------
  ---2----3----x----5-----5---5-------------------
  ---0----0----x----5-----5---5----0--------------
  -------------x----3-----3---3----0--------------
  ---------------------------------0--------------

  ------------------------------------------------ 
  ------------------------------------------------
  --------------x-----3----3---3------------------
  ---5----5-----x-----3----3---3------------------
  ---5----5-----x-----1----1---1------------------
  ---3----3---------------------------------------
  
  w/rhy.fig 2

  It isn't me. 
  We have some seed. 
  Let me clip your dirty wings.
  Let me take a ride. 
  Don't hurt yourself. 
  I want some help
  to please myself. 
  I've got some rope 
  you have been told.
  I promise you 
  I have been true. 
  Let me take a ride.
  Don't hurt yourself 
  I want some help 
  to please myself.
  
  w/rhy.fig 1
  
  Polly wants a cracker,
  maybe she would like more food.
  She asks me to untie her.
  A chase would be nice for a few.

  
  w/rhy.fig 2

  It isn't me. 
  We have some seed. 
  Let me clip your dirty wings.
  Let me take a ride. 
  Don't hurt yourself. 
  I want some help
  to help myself. 
  I've got some rope 
  you have been told.
  I promise you 
  I have been true. 
  Let me take a ride.
  Don't hurt yourself 
  I want some help 
  to help myself.

  
  ------------------------------------------------   
  ------------------------------------------------
  ------------------------------------------------
  ---2---------------------(x)/-------------------
  ---2---------------------(x)/----------------x/-
  ---0--------------------------------------------
  
  *Note: the x doesn't refers to do a pick slide 
  but to a finger scrape

  Polly said
  
  w/ rhy. fig 1
  Polly says her back hurts, 
  she's just as bored as me,
  she caught me off my guard, 
  it amazes me the will of instinct.
  
  w/rhy.fig 2

  It isn't me. 
  We have some seed. 
  Let me clip your dirty wings.
  Let me take a ride. 
  Don't hurt yourself. 
  I want some help
  to help myself. 
  I've got some rope 
  you have been told.
  I promise you 
  I have been true. 
  Let me take a ride.
  Don't hurt yourself 
  I want some help 
  to help myself.


  ------------------------------------------------
  ------------------------------------------------
  ----0--------------------------------------------
  ----2-------------------------------------------
  ----2-------------------------------------------
  ----0-------------------------------------------


Nirvana albums
1994 MTV Unplugged In New York
1993 In Utero
1992 Incesticide
1991 Nevermind
1989 Bleach
Nevermind tabs
01Smells Like Teen Spirit tabbass tab
02In Bloom tabbass tab
03Come As You Are tabbass tab
04Breed tabbass tab
05Lithium tabbass tab
06Polly tabbass tab
07Territorial Pissings tabbass tab
08Drain You tabbass tab
09Lounge Act tabbass tab
10Stay Away tabbass tab
11On A Plain tabbass tab
12Something In The Way tabbass tab

 

1