Search tabs:
Browse artists: 0-9 | A | B | C | D | E | F | G | H | I | J | K | L | M | N | O | P | Q | R | S | T | U | V | W | X | Y | Z
/ Nirvana / Nevermind (1991) / Something In The Way guitar tab

Something in the way
  By Kurt Cobain
  Tune one step below with dropped-d (dropped-c, in this case), (C G C F A D)
  Acoustic, steel strings 
  
  Verses
 |--------------------------------------------|
 |o------------------------------------------o|
 |--------------------------------------------|
 |---4----4-----4--4-----0----0-----0--0------|
 |o--4----4-----4--4-----0----0-----0--0-----o|
 |---4----4-----4--4-----0----0-----0--0------|


  Chorus
 |--------------------------------------------|
 |o----------------------3----3-----3--3-----o|
 |-----------------------2----2-----2--2------|
 |---4----4-----4--4-----0----0-----0--0------|
 |o--4----4-----4--4-----0----0-----0--0-----o|
 |---4----4-----4--4--------------------------|
 
 Verse
 Underneath the bridge
 the trap has sprung a leak  
 and the animals I've trapped
 have all become my pets   
 and I'm living of off grass
 and the dripings from the ceiling
 but it's okay to eat fish,
 'cause they haven't any feelings    (use chorus bar in this line instead of
                                      verse bar)

 Chorus
 Something in the way      mmmmmh
 something in the way      yeah    mmmmmh

 Repeat verse and chorus


Nirvana albums
1994 MTV Unplugged In New York
1993 In Utero
1992 Incesticide
1991 Nevermind
1989 Bleach
Nevermind tabs
01Smells Like Teen Spirit tabbass tab
02In Bloom tabbass tab
03Come As You Are tabbass tab
04Breed tabbass tab
05Lithium tabbass tab
06Polly tabbass tab
07Territorial Pissings tabbass tab
08Drain You tabbass tab
09Lounge Act tabbass tab
10Stay Away tabbass tab
11On A Plain tabbass tab
12Something In The Way tabbass tab

 

1