Search tabs:
Browse artists: 0-9 | A | B | C | D | E | F | G | H | I | J | K | L | M | N | O | P | Q | R | S | T | U | V | W | X | Y | Z
/ Oasis / Don't Believe the Truth (2005) / Lyla guitar tab

"Lyla" by Oasis from the album "Don't Believe the Truth" (2005) coming May 30, 2005.

Tabbed by: Medalion
Email: medalionemissary@hotmail.com

The song is predominantly chord driven with a few guitar fills here or there.
Tablature is not necessarily shown to reflect timing, listen to song for that.
All bends in this tab are full-step bends (bend note up 2 frets) accompanied
by lots of vibrato.  All chords are relative to capo.

Tuning: EADGBe with **Capo on 2nd fret**

-----------
Chord Chart
-----------
A (x02220)
Dsus2 (x00230)
F (133211) or Fmaj7 (x3321x)
G (320022)
D/F# (200232)
E (0221xx)

Intro
-----
A, Dsus2, A

e----0----|
B-2--3--2-|
G-2--2--2-|
D-2--x--2-|

Verse
-----
A
F or Fmaj7, G, A

Prechorus ("I waited for a thousand years...", "She ring the bell...")
---------
F or Fmaj7, then G, then back to the intro 3 times quickly

Chorus ("Heyyyyy Lyla...")
------

e----0----|
B-2--3--2-|
G-2--2--2-|
D-2--x--2-|

A, Dsus2, A
G, D/F# back to start of chorus again 3 times,
but then chorus ends on an open E chord.

Bridge
------
E, A over and over

Guitar Solo/Fill (during the bridge)
----------------

e-------------------------------------------------------------17---17--17--17----|
B---------------17b--17~~-------------------------17b-17b--17b---17b-17b-17b-----|over and over
G----------------------------------2b--2~~---------------------------------------|go nuts!
D--13s0--------------------13s0-----------13s0-----------------------------------|
A--------11s0--------------------------------------------------------------------|
E--------------------------------------------------------------------------------|

Outro
-----
E, A over and over

and then this arpeggio comes in...

e-0---------|
B----0------|
G-------2---|
D---------2-|
Let notes ring, play this arpeggio as many times as reflected in song.


Oasis albums
2005 Don't Believe the Truth
2002 Heathen Chemistry
2000 Standing On The Shoulder Of Giants
1998 The Masterplan
1997 Be Here Now
1995 Morning Glory (What's The Story)
1994 Definitely Maybe
Don't Believe the Truth tabs
01Turn Up the Sun tabbass tab
02Mucky Fingers tabbass tab
03Lyla tabbass tab
04Love Like a Bomb tabbass tab
05The Importance of Being Idle tabbass tab
06The Meaning of Soul tabbass tab
07Guess God Thinks I'm Abel tabbass tab
08Part of the Queue tabbass tab
09Keep the Dream Alive tabbass tab
10A Bell Will Ring tabbass tab
11Let There Be Love tabbass tab

 

1