Search tabs:
Browse artists: 0-9 | A | B | C | D | E | F | G | H | I | J | K | L | M | N | O | P | Q | R | S | T | U | V | W | X | Y | Z
/ Oleander / February Son (1999) / Why I'M Here guitar tab

Oleander - Why i'm here. On the album "February Son" (2/23/99)

 Dropped 'D' tunning


 P.M = Palm Mute. Example: ---(P.M.)-1- the 1 would be palm muted.
 / = Slide
 b = Bend to


 Intro/Verse:
 -------------------------------------------------------
 -------------------------------------------------------
 -------------------------------------------------------
 --------7-----------10--------------7-------------2---
 -----7------------10--------------7-------------2------
 --7--------7---10--------10---7---------0---2-------0

 Repeat that throughout the verse.



 Little Riff played at intro:

 --------------------------------------------------------------------------
 --------------------------------------------------------------------------
 ---4/8---8/9/8--8/11--9------------------------------------------------
 -----------------------------9---11b13----9--8--9---------------9b11---
 --------------------------------------------------------9--11------------
 --------------------------------------------------------------------------




 Chorus:

 --------------------------------------------------------------------------------------------------
 --------------------------------------------------------------------------------------------------
 --------------------------------------------------------------------------------------------------
 --33333333-----55555555------(P.M.)-0-(P.M.)-0-000------3333333333333333-----55555555-
 --33333333-----55555555------(P.M.)-0-(P.M.)-0-000------3333333333333333-----55555555-
 --33333333-----55555555------(P.M.)-0-(P.M.)-0-000------3333333333333333-----55555555-

 Riff #2:

 --------------------------------------------------------------------------4---------
 --------------------------------------------------------------------------4---------
 ---4/8---8/9/8--8/11--9-----------------------------------4---6b7--------------6b7--
 -----------------------------9---11b13---9--8-----4/6-------------------------------
 -------------------------------------------------------------------------------------
 -------------------------------------------------------------------------------------




 The solo:
 p.s. Like any riff or solo, listen to it over and over before you write
 me and tell me it's wrong : )


 ------------------------------------------------------------------------------------
 ------------------------------------------------------------------------------------
 -8h9h8---6--8----8h9h8---6--8----8h9h8---6--8-----6b8--6-4-6-4--------
 ------------------------------------------------------------------------------6----
 ------------------------------------------------------------------------------------
 ------------------------------------------------------------------------------------



 ------------------------------------------------------------------------------------
 ------------------------------------------------------------------------------------
 -----4--6b8b6---4--3h4h3------3-------3---------------------3--3--3b4b3-------
 ---------------------------------6------4-------4----4/6-6------------------6---
 ------------------------------------------------------------------------------------
 ------------------------------------------------------------------------------------



 --------------------------------------7----7b8----7--7-----------------------------------------------------------------
 ----------------------------------7--7----7b8--------7-----7---9-9---------------------------------------------------
 -6--4--3^^b4b3^^^^^--3/8----------------------------------------6--8---8h9h8--6---8----8h9h8h9h8----6---8
 --------------------------------------------------------------------------------------------------------------------------
 --------------------------------------------------------------------------------------------------------------------------
 --------------------------------------------------------------------------------------------------------------------------




 Lyrics:
 It's the reason for my pain
 in a season to celebrate
 I don't wanna be full of hate for anybody
 but it's to..
 late

 everyone has been in my face
 telling me that im a disgrace
 showin me things that i must face
 telling me that they need there...
 Space

 I can't love you anymore
 im scared of the sound of it

 it's the reason why im down
 i beatin and pushed around
 hit the ceiling without a sound
 everyone i know considers me a...
 Clown

 I can't love you anymore
 i'm scared of the sound of it
 
 Sorry if it's a mess, i made it in an email window. Keep on playing!
 Lemme know if you find any mistakes,
 especially in the end section of the solo ; )

 See ya!

 -Griff
 gshelley@adelphia.net

ok, this is my first time to tab something and i am sure that it is 100%
   correct, u just have to follow me on this one, if u have any question or
   coments,requests, email me at beanis_69@hotmail.com , and i would be more than
   happy to help.
   bend:^
   Slide:/
   First Solo
   ---------------------------------------------
   1/4--4-5-4-7-5---------------------------------------
   --------------------4-6^--4-3-4---4-6^--1--------------
   ------------------------------------4-------
   -----------------------------------------------
   ---------------------------------------------

   Second Solo
   For this second one u have to move the 6 bend up fast and then down so u have
   this two sounding pitch, and at the end where u hit the 6 again, u have to bend
   it up and hit it 3 times, each with a little bit or a higher pitch,

   -----------------------------------------------
   -1/4-4-5-4-7-5----------------------------------------
   --------------------4-6^---4/3-----------6^6^6^------------
   -----------------------------------4/6-6------------
   -----------------------------------------------
   -----------------------------------------------

   Well thats all that i have for right now, i am still working on the last solo,
   i only have an acustic/electric guitar so it doesnt do me that good, remember
   if u have any questions,coments,or requests, dont hessitate to email me at
   beanis_69@hotmail.com, i will be glad to help, thanks 


Oleander albums
2003 Joyride
2001 Unwind
1999 February Son
February Son tabs
01You'll Find Out tabbass tab
02Stupid tabbass tab
03Down When I'M Loaded tabbass tab
04Why I'M Here tabbass tab
05I Walk Alone tabbass tab
06Lost Cause tabbass tab
07Where Were You Then? tabbass tab
08Shrinking The Blob tabbass tab
09How Could I? tabbass tab
10Boys Don't Cry tabbass tab
11Never Again tabbass tab

 

1