Search tabs:
Browse artists: 0-9 | A | B | C | D | E | F | G | H | I | J | K | L | M | N | O | P | Q | R | S | T | U | V | W | X | Y | Z
/ Oleander / Joyride (2003) / Off and On guitar tab

Oleander - Off And On
Submitted By: armstrda
EMail: armstrda@engr.orst.edu

Tuning: Drop Db (Db Ab Db Gb Bb Eb)


intro (palm mute where neccessary)
(timing not noted, not too hard to get a feel though)

Eb|---------------------------------------------------------------------------||
Bb|---------------------------------------------------------------------------||
Gb|---------------------------------------------------------------------------||
Db|-3p0--h3p0------------------------------------------------------------------------||
Ab|-3p0--h3p0------------------------------------------------------------------------||
Db|-3p0--h3p0------------------------------------------------------------------------||

lead at 0:12
(with some nasty wah)

Eb|-------------------------------------------||
Bb|-------------------------------------------||
Gb|-5p4h5p4h5(slight vibrato)--5p4------------||
Db|---------------------------------5-2-3hold-||
Ab|-------------------------------------------||
Db|-------------------------------------------||

verse 0:23
palm muted
Eb|-------------------------------------||
Bb|-------------------------------------||
Gb|-------------------------------------||
Db|--0--0--0--3p0-3p0----------------------------||
Ab|--0--0--0--3p0-3p0----------------------------||
Db|--0--0--0--3p0-3p0----------------------------||

chorus 0:53

not real time
Eb|---------------------------------------------------||
Bb|---------------------------------------------------||
Gb|-3-3-3/5--3-3-3/5---------3-3-3/5--3-3-3/5---------||
Db|-3-3-3/5--3-3-3/5-5-5-5-5-3-3-3/5--3-3-3/5-5-5-5-5-||
Ab|-1-1-1/3--1-1-1/3-5-5-5-5-1-1-1/3--1-1-1/3-5-5-5-5-||
Db|------------------5-5-5-5------------------5-5-5-5-||

chorus (part 2)
1:10

Eb|------------------------------------||
Bb|-------------------8b---------------||
Gb|------------------------------------||
Db|-3-3-3-8-8-8-8-5-5-5-5--------------||
Ab|-3-3-3-8-8-8-8-5-5-5-5--------------||
Db|-3-3-3-8-8-8-8-5-5-5-5--------------||
x3

back to intro

verse

chorus

chorus (part 2)

drum break

chorus (part 2)



end

pull off and hammer on between the




Eb|------------------||
Bb|------------------||
Gb|------------------||
Db|-0-------3--------||
Ab|-0--and--3--------||
Db|-0-------3--------||

final end on




Eb|------------------||
Bb|------------------||
Gb|------------------||
Db|---8--------------||
Ab|---8--------------||
Db|---8--------------||


Oleander albums
2003 Joyride
2001 Unwind
1999 February Son
Joyride tabs
01Hands Off the Wheel tabbass tab
02Don't Break My Fall tabbass tab
03Fountain and Vine tabbass tab
05Rainy Day tabbass tab
06Off and On tabbass tab
09King of Good Intentions tabbass tab
11Runaway Train tabbass tab

 

1