Search tabs:
Browse artists: 0-9 | A | B | C | D | E | F | G | H | I | J | K | L | M | N | O | P | Q | R | S | T | U | V | W | X | Y | Z
/ Pink Floyd / Wish You Were Here (1975) / Shine On You Crazy Diamond (Part II) guitar tab

SHINE ON YOU CRAZY DIAMOND PART 2
Pink Floyd
(Gilmour, Waters, Wright)

Compiled by Chris Hannon (http://www.angelfire.com/md/severnapark)


---------------0----
------6-------------	<-- repeat 4 times.
----------0---(0)---
---8----------(8)---
--------------------
--------------------

C						 Gm7
-------------0----------------------------------------------------0---
------6-----------------------------------------------------6---------
---------0-----------------------------------------------------0------
---8-----------------------------------------------------8------------
-----------------3--3--3--3--3--3--3--3--3--3/5-----------------------
-----------------1--1--1--1--1--1--1--1--1--1/3-----------------------

		Eb		D					Gm7
------------------------------------------------------------------------
------6-----------------------------------------------------------------
----------0---8------------8---7----------------------------------------
--8-----------8------------8---7----------------------------------------
-------------------------------------3--3--3--3--3--3--3--3--3--3/5-----
-------------------------------------1--1--1--1--1--1--1--1--1--1/3-----

------------------0---
-------6--------------
------------0---------
---8------------------
----------------------
----------------------


SOLO:
-------------------------------------3---------------------------------------
----------------------------------3-----3------------------------------------
---17>(19)>17---15--17----------------------5>(7)----(7)>5>3------5---3------
------------------------17\------------------------------------5----------5--
-----------------------------------------------------------------------------
-----------------------------------------------------------------------------

--18>15-----18---17>(18)--17vvv---------------------------------------------
--15----15--15---------------------18>15--18>(20)----18>(20)>18>15--18vvvv--
----------------------------------------------------------------------------
----------------------------------------------------------------------------
----------------------------------------------------------------------------
----------------------------------------------------------------------------

--18>15------18>15-----18>(20)---18>(20)>1815--18------------------
---------15--------15------------------------------18>(20)--18\----
-------------------------------------------------------------------
-------------------------------------------------------------------
-------------------------------------------------------------------
-------------------------------------------------------------------

--------------------------------------------------------------------------
--------------------------------------------------------------------------
--15>(17)>(19)>15--12--15>(16)vvv-12------6\5--3>(4)----------------------
-------------------------------------------------------5------------------
-----------------------------------------------------------4\3---1--3/5---
--------------------------------------------------------------------1/3---

--------------------------6--------------------------------------
-----------------------------5/6--8/-------(11)>10>8------8/-----
------3--------------6>7------------------------------10---------
------3--3/5vvvvvv-----------------------------------------------
--4/5------------------------------------------------------------
-----------------------------------------------------------------

-------------------------------------------------------------------------
-------------------------------------------------------------------------
---15--17>(19)>17>(19)----17>(19)>(20)vvvvv----17>(19)>(20)---17>(20>17--
-------------------------------------------------------------------------
-------------------------------------------------------------------------
-------------------------------------------------------------------------

--------------------------------15----15-----15--------------15---15--
----------------------------18>(20)------18>(20)>18>15---18>(20)------
----------------------------------------------------------------------
--16---16>17>16\14>16--16---------------------------------------------
----------------------------------------------------------------------
----------------------------------------------------------------------

--17>(18)--17>(18)---17-----------------------------------------------
-------------------------18>(20)----(20)>18>15---18-------------------
-----------------------------------------------------17>(19)=====>17--
----------------------------------------------------------------------
----------------------------------------------------------------------
----------------------------------------------------------------------

---------------------------------------------------------------------------
---------------------------------------------------------------------------
--(19)>17>15-----------------3---5---5>(7)>(8)>5---(8)>5--3--5--5>(7)vvvv--
--------------17\---------5------------------------------------------------
---------------------------------------------------------------------------
---------------------------------------------------------------------------

-----------------------------------------------------------------------
----------3----6-------------------------------------------------------
---5>(7)-----------5>(8)==========>5--(7)>5>3-----5--5>(7)vvvvvvvv>5---
-----------------------------------------------------------------------
-----------------------------------------------------------------------
-----------------------------------------------------------------------

KEYBOARD SOLO:
Gm					 Cm
------------------------------------------------------------
---------5\3-------------------5\3-------------------10\8---
------------------------------------------------------------
---3/5---5\3--------------3/5--5\3-------------8/10--10\8---
---------------------------------------5--------------------
------------------------------------6-----------------------

Gm		   Eb	   D	 Eb		D    Gm    Cm   Gm    D7#9
----------------------------------------------------------------------------
--------5\3-----8------7------8------11\---7---------------------------6----
-----------------------------------------------------------------------5----
---3/5--5\3-----8------7------8------11\---7---------------------------4----
-----------------------------------------------------------------------5----
----------------------------------------------------------------------------

SOLO:
------15------------15---18>15-------------------3----------------0----------
--15-------18>(20)--------------18>(20)\------3------6-----------------------
---------------------------------------------------------5>(7)----5>3--5--3--
-----------------------------------------------------------------------------
-----------------------------------------------------------------------------
-----------------------------------------------------------------------------

-----------------------------------------------------------18-----------------
--------------------------------------11----11-----18>(20)-----18>(20)vvvv18\-
----------15>(17)>15>(19)>15----11/12----12-----------------------------------
--5vvvv-----------------------------------------------------------------------
------------------------------------------------------------------------------
------------------------------------------------------------------------------

-------6>5--------------------------------------------------------------
------------6/8\--------------------------------------------------------
--6/7--------------(17)>15>(19)>15--------15--17>(18)>17>15--17--17>15--
------------------------------------15/17-------------------------------
------------------------------------------------------------------------
------------------------------------------------------------------------

-------------------------------3----------------------------------------------
----------------------------------6--------------------3----------------------
--17--17--17>15--17>(19)vvvv\--------5>(7)---5--3>(5)--3---3---5----3\2-------
---------------------------------------------------------5-------5------3-----
--------------------------------------------------------------------------3/5-
------------------------------------------------------------------------------

-----------------------------------------------15-------------------------
-------------------------------------18>(20)--------18>(20)-----18>(20)---
--------3---------15>(17)>15>(19)>0--------------------------0------------
-----------3>5------------------------------------------------------------
--4/5---------------------------------------------------------------------
--------------------------------------------------------------------------

--15--18>15--18>(20)vvv-----18>(20)>18>15--18---------------------------------
-----------------------------------------------18>(20)------------------------
-------------------------0-----------------------------------15--17--17>(19)--
---------------------------------------------------------17-------------------
------------------------------------------------------------------------------
------------------------------------------------------------------------------

--------------------------------------------------------------------
--------------------------------------------------------------------
--17>(20)---17>(20)>17---------------------------------14--15vvvv\--
-------------------------16vvvv---16>17>16\14--16--17--16--17vvvv\--
--------------------------------------------------------------------
--------------------------------------------------------------------

-----3-----------------------------------------------------------
--3----6---------------------------------------------------------
----------5>(7)vvvv>5---(8)>5>3---5--3----3----------------------
----------------------------------------5----5-------------------
------------------------------------------------5\3--1--3/5--5\--
-----------------------------------------------------------------


NOTATION USED:
legato					---7>6>7----
bend(and release)			--7>(8)>7---
hold bend				--7>(8)==>7-
vibrato				        --7vvvvvvvv-
slide					---7/8------


Pink Floyd albums
1994 The Division Bell
1987 A Momentary Lapse Of Reason
1983 The Final Cut
1979 The Wall
1977 Animals
1975 Wish You Were Here
1973 Dark Side Of The Moon
1971 Relics
1969 Atom Heart Mother
1968 A Saucerful Of Secrets
1967 The Piper At The Gates Of Dawn
Wish You Were Here tabs
01Shine On You Crazy Diamond (Part I) tabbass tab
02Shine On You Crazy Diamond (Part II) tabbass tab
03Shine On You Crazy Diamond (Part III) tabbass tab
04Shine On You Crazy Diamond (Part IV) tabbass tab
05Shine On You Crazy Diamond (Part V) tabbass tab
06Welcome To The Machine tabbass tab
07Have A Cigar tabbass tab
08Wish You Were Here tabbass tab
09Shine On You Crazy Diamond (Part VI) tabbass tab
12Shine On You Crazy Diamond (Part IX) tabbass tab

 

1