Search tabs:
Browse artists: 0-9 | A | B | C | D | E | F | G | H | I | J | K | L | M | N | O | P | Q | R | S | T | U | V | W | X | Y | Z
/ The Red Hot Chili Peppers / Blood Sugar Sex Magik (1992) / Give It Away guitar tab

Song: Give It Away
Artist: Red Hot Chili Peppers
Album: Blood Sugar Sex Magik

Words and Music by Flea, Anthony Kiedis, Chad Smith and John Frusciante
Transcribed by Roadkill

Tuning: Standard (EADGBE)



 Intro
  Moderate Funk/Rock Q=92
 4/4
  Gtr I
|------------8------(8)--(8)---|--(8)--11----------------11------------11------------11------------11---------------|
|-----------11b12==(11)-(11)---|-(11)r-11pb12------------------------------------------------------11b12------------|
|-7-----9---11b12==(11)-(11)---|-(11)r--------11b12r(11)----11b12r(11)----11b12r(11)----11b12r(11)-------11b12r(11)-|
|-7-7---9-7--------------------|------------------------------------------------------------------------------------|
|-0-0-----0--------------------|------------------------------------------------------------------------------------|
|-----0------------------------|------------------------------------------------------------------------------------|


|-------------8------(8)----(8)\--|
|------------11b12==(11)---(11)r\-|
|-7-7------0-11b12==(11)---(11)r\-|
|-7-7---11-0----------------------|
|-0---0--0------------------------|
|---------------------------------|


                                      $
|-------------------------------------||
|-------------------------------------||
|---x---------------------------------||
|-0-5---5-5-----5-5-----5-5---5-5-----||
|-------------------------------------||
|-----8-----8b9-----8b9-----8-----8b9-||


 1st Verse
|--------------------------------|--------------------|
|--------------------------------|--------------------|
|---x-x-7-6-5b5.5--------------x-|----------7-8-9-x-x-|
|-7-x-x-----------x-5-------5--x-|-7------7-------x-x-|
|-0------------------------------|-0--5s7-------------|
|---------------------8b8.5------|--------------------|


|------------------------|-----------------------------|
|------------------------|-----------------------------|
|---x-7--6--5--5---------|---x-x-------7-5b6-----------|
|-7-x------------------5-|-7-x-x-----7-------5b5.5-(5)-|
|-0----------------------|-0-----5s7-------------------|
|----------------8b8.5---|-----------------------------|


|-----------------------------|-------------------|
|-----------------------------|-------------------|
|-7-x-x-7-6-5b5.5---------x-x-|----x-------7-8-9--|
|-7-x-x-----------x-5---5-x-x-|-7--x-5s7-7--------|
|-0---------------------------|-0----5s7----------|
|---------------------8-------|-------------------|


|----------------------------|------------------------|
|----------------------------|------------------------|
|---x-7--6--5b5.5--x---------|----x-------7-5b5.5---x-|
|-7-x--------------x-5-----5-|-7--x-----7---------5-x-|
|-0--------------------------|------5s7---------------|
|----------------------8-x---|------------------------|


|-------------------------|------------------------|
|-------------------------|------------------------|
|----x-7-6-5b6------------|---x-x-------^7-8-^9--x-|
|-7--x---------x-5---5--x-|-7-x-------7-^x---^x--x-|
|-x-----------------------|-0-----5s7-0------------|
|------------------8------|------------------------|


                                        To Coda
|------------------------|----------------------||
|------------------------|----------------------||
|---x-7--6--5--x---------|---x-x-------7-5b6----||
|-7-x----------x-5-----5-|-7-x-x-----7-------5--||
|-0----------------------|-0-----5s7-0-------0--||
|------------------8-x---|----------------------||


 Chorus
|-------------------------------|---------------8-----------|
|-------------------------------|---------------8-8--7--7---|
|-------------------------------|---------------8-8--7--7---|
|-7-7-7-5-7-7-7-7-7-7-5h=7--7---|-7-7-7-7-7-7-7---------7-7-|
|-0-0-0-0-0-0-0-0-0-0-0-(0)-0-7-|-0-0-0-0-0-0-0-----------0-|
|-------------------------------|---------------------------|


|-----------------------------|-------------[5]---------------5-------5---5--||
|-----------------------------|-----------------5----(5)-5-5--5---5-5-5------||
|-----------------------------|-----------------7b8==(7)-7-7r-7b9-6-6-7b9----||
|-7-7-7-7-7-7-7-7-7-7-7-7-7-7-|-7-7-7-7--------------------0-----------------||
|-0-0-0-0-0-0-0-0-0-0-0-0-0-0-|-0-0-0-0-0-0----------------------------------||
|-----------------------------|----------------------------------------------||


 2nd Verse
|--------------------------------|--------------------|------------------------|
|--------------------------------|--------------------|------------------------|
|---x-x-7-6-5b5.5--------------x-|----------7-8-9-x-x-|---x-7--6--5--5---------|
|-7-x-x-----------x-5-------5--x-|-7------7-------x-x-|-7-x------------------5-|
|-0------------------------------|-0--5s7-------------|-0----------------------|
|---------------------8b8.5------|--------------------|----------------8b8.5---|


|-----------------------------|
|-----------------------------|
|---x-x-------7-5b6-----------|
|-7-x-x-----7-------5b5.5-(5)-|
|-0-----5s7-------------------|
|-----------------------------|


|-----------------------------|--------------------|
|-----------------------------|--------------------|
|-7-x-x-7-6-5b5.5---------x-x-|----x-------7-8-9---|
|-7-x-x-----------x-5---5-x-x-|-7--x-5s7-7---------|
|-0---------------------------|-0----5s7-----------|
|---------------------8-------|--------------------|


|----------------------------|
|----------------------------|
|---x-7--6--5b5.5--x---------|
|-7-x--------------x-5-----5-|
|-0--------------------------|
|----------------------8-x---|


|------------------------|-------------------------|
|------------------------|-------------------------|
|----x-------7-5b5.5---x-|----x-7-6-5b6------------|
|-7--x-----7---------5-x-|-7--x---------x-5---5--x-|
|------5s7---------------|-x-----------------------|
|------------------------|------------------8------|


|------------------------|------------------------|-----------------------||
|------------------------|------------------------|-----------------------||
|---x-x-------^7-8-^9--x-|---x-7--6--5--x---------|---x-x-------7-5b6-----||
|-7-x-------7-^x---^x--x-|-7-x----------x-5-----5-|-7-x-x-----7-------5---||
|-0-----5s7-0------------|-0----------------------|-0-----5s7-0-------0---||
|------------------------|------------------8-x---|-----------------------||


 Chorus
|-------------------------------|-------------------8--7-7-5-|
|-------------------------------|---------5---------8--7-7-5-|
|-------------------------------|---------5---------8--7-7-5-|
|-7-7-7-5-7-7-7-7-7-7-5h=7--7---|-7-7-7-7---7-7-7-7----------|
|-0-0-0-0-0-0-0-0-0-0-0-(0)-0-7-|-0-0-0-0---0-0-0-0----------|
|-------------------------------|----------------------------|


|-------------------------------|
|-------------------------------|
|-------------------------------|
|-7-7-7-7-7-7-7-7-7-7-7-7-7-7-7-|
|-0-0-0-0-0-0-0-0-0-0-0-0-0-0-0-|
|-------------------------------|


|---7-xs=16--------------------------^17-----------17--------17-----|
|---7-x/-----------------------------^17--------17----17-----17-----|
|---7-x/----x-x-19pb19.5-19pb20==19r-----19pb20-------19pb21--------|
|-x---------x-x---------------------------------------------------0-|
|-x---------x-x-------------------------------------------------0-0-|
|-----------x-x-----------------------------------------------------|


|----------|-----|
|----------|-----|
|----------|-----|
|-7--------|-----|
|-0--------|-----|
|----------|-----|


  Gtr II
                 <
|---------|------0---||
|---------|------5---||
|---------|----------||
|---------|----------||
|---------|----------||
|---------|----------||
|
| Gtr I
|---------|----------||
|---------|----------||
|---------|----------||
|---------|----------||
|---------|----------||
|---------|----------||


 Guitar Solo 1
|-(0)-----------0---0-------0-----|-0-------0---0-(0)-------0-----|
|-(5)---------5s3---3s======5-----|-7-------8---5-(5)-------3-----|
|---------------------------------|-9-------9---------------------|
|---------------------------------|-------------------------------|
|---------------------------------|-------------------------------|
|---------------------------------|-------------------------------|
|
|---------------------------------|-------------------------------|
|---------------------------------|-------------------------------|
|--9--9-9-9-9---9-9-9-9-9-9-9-9-9-|-9-9-9-9-9-9-9--9--9-9-9-9-9-9-|
|--7--7-7-7-7---7-7-7-7-7-7-7-7-7-|-7-7-7-7-7-7-7--7--7-7-7-7-7-7-|
|--7--7-7-7-7---7-7-7-7-7-7-7-7-7-|-7-7-7-7-7-7-7--7--7-7-7-7-7-7-|
|--0--0-0-0-0---0-0-0-0-0-0-0-0-0-|-0-0-0-0-0-0-0--0--0-0-0-0-0-0-|


|-0--------0-----(0)-----------0---|--(0)--0------(0)-0---------------------|
|-5-------/8-----(8)-----10---11---|-(11)-10-----(10)-8-------------10------|
|---------/9-----(9)------9----9---|--(9)--9------(9)-9--------------9------|
|----------------------------------|----------------------------------------|
|----------------------------------|----------------------------------------|
|----------------------------------|----------------------------------------|
|
|----------------------------------|----------------------------------------|
|----------------------------------|----------------------------------------|
|-9-9-9-9--9-9-9--9--9-9--9-9--9-9-|---9---9-9-9---9--9-9-9-9-9-9-9--9-9----|
|-7-7-7-7--7-7-7--7--7-7--7-7--7-7-|---7---7-7-7---7--7-7-7-7-7-7-7--7-7----|
|-7-7-7-7--7-7-7--7--7-7--7-7--7-7-|---7---7-7-7---7--7-7-7-7-7-7-7--7-7----|
|-0-0-0-0--0-0-0--0--0-0--0-0--0-0-|---0---0-0-0---0--0-0-0-0-0-0-0--0-0----|


|-----------------------------------|------9-----(9)-7---(7)-----10-(10)-----|
|-12-----11---10---(10)-------------|-(10)-----------------------------------|
|--9------9----9----(9)-------------|--(9)-9-----(9)-9---(9)------9--(9)-----|
|-----------------------------------|----------------------------------------|
|-----------------------------------|----------------------------------------|
|-----------------------------------|----------------------------------------|
|
|-----------------------------------|----------------------------------------|
|-----------------------------------|----------------------------------------|
|--9-9-9--9-9--9-9---9--9-9-9-9-9-9-|---9--9-9-9--9--9-9--9--9-9--9---9--9-9-|
|--7-7-7--7-7--7-7---7--7-7-7-7-7-7-|---7--7-7-7--7--7-7--7--7-7--7---7--7-7-|
|--7-7-7--7-7--7-7---7--7-7-7-7-7-7-|---7--7-7-7--7--7-7--7--7-7--7---7--7-7-|
|--0-0-0--0-0--0-0---0--0-0-0-0-0-0-|---0--0-0-0--0--0-0--0--0-0--0---0--0-0-|


|-(10)-9-----10-----(10)-12-----(12)-----|-12---------------------------------||
|----------------------------------------|--------7--5------------------------||
|--(9)-9------9------(9)--9------(9)-----|--9----------7pb9r(7)---------------||
|----------------------------------------|------------------------------------||
|----------------------------------------|------------------------------------||
|----------------------------------------|------------------------------------||
|
|----------------------------------------|--x--x--x\--------------------------||
|----------------------------------------|--x--x--x\--------------------------||
|---9--9-9-9--9-9-9---9---9-9-9---9--9-9-|--x--x--xs============7pb8r(7)p5----||
|---7--7-7-7--7-7-7---7---7-7-7---7--7-7-|--x--x--x\--------------------------||
|---7--7-7-7--7-7-7---7---7-7-7---7--7-7-|------------------------------------||
|---0--0-0-0--0-0-0---0---0-0-0---0--0-0-|------------------------------------||


 3rd Verse
  Gtr I
|--------------------------------|--------------------|------------------------|
|--------------------------------|--------------------|------------------------|
|---x-x-7-6-5b5.5--------------x-|----------7-8-9-x-x-|---x-7--6--5--5---------|
|-7-x-x-----------x-5-------5--x-|-7------7-------x-x-|-7-x------------------5-|
|-0------------------------------|-0--5s7-------------|-0----------------------|
|---------------------8b8.5------|--------------------|----------------8b8.5---|


|-----------------------------|
|-----------------------------|
|---x-x-------7-5b6-----------|
|-7-x-x-----7-------5b5.5-(5)-|
|-0-----5s7-------------------|
|-----------------------------|


|-----------------------------|--------------------|
|-----------------------------|--------------------|
|-7-x-x-7-6-5b5.5---------x-x-|----x-------7-8-9---|
|-7-x-x-----------x-5---5-x-x-|-7--x-5s7-7---------|
|-0---------------------------|-0----5s7-----------|
|---------------------8-------|--------------------|


|----------------------------|
|----------------------------|
|---x-7--6--5b5.5--x---------|
|-7-x--------------x-5-----5-|
|-0--------------------------|
|----------------------8-x---|


|------------------------|-------------------------|
|------------------------|-------------------------|
|----x-------7-5b5.5---x-|----x-7-6-5b6------------|
|-7--x-----7---------5-x-|-7--x---------x-5---5--x-|
|------5s7---------------|-x-----------------------|
|------------------------|------------------8------|


|------------------------|------------------------|-----------------------||
|------------------------|------------------------|-----------------------||
|---x-x-------^7-8-^9--x-|---x-7--6--5--x---------|---x-x-------7-5b6-----||
|-7-x-------7-^x---^x--x-|-7-x----------x-5-----5-|-7-x-x-----7-------5---||
|-0-----5s7-0------------|-0----------------------|-0-----5s7-0-------0---||
|------------------------|------------------8-x---|-----------------------||


 Chorus
|----------|----------|
|----------|----------|
|----------|----------|
|-7--------|-7--------|
|-0--------|-0--------|
|-0--------|-0--------|


            Gtr II
|---------|-----------------||
|---------|-----------------||
|---------|-----------------||
|---------|-------5pb6r(5)--||
|---------|-----------------||
|---------|-----------------||
|
|           Gtr I
|---------|-----------------||
|---------|-----------------||
|---------|-----------------||
|---------|-----------------||
|---------|-----------------||
|---------|-----------------||


 Guitar Solo 2
|--------------------------------------------------||
|--------------------------------------------------||
|--------------7-9---12pb13r(12)-------14b15=======||
|---7pb8r(7)---------------------------------------||
|--------------------------------------------------||
|--------------------------------------------------||
|
|--------------------------------------------------||
|--------------------------------------------------||
|-9-9-----9--9-9-9-9--9-------9--9-9-9--------9-9--||
|-7-7-----7--7-7-7-7--7-------7--7-7-7--------7-7--||
|-7-7-----7--7-7-7-7--7-------7--7-7-7--------7-7--||
|-0-0-----0--0-0-0-0--0-------0--0-0-0--------0-0--||


  Gtr II
|----------------------------------------------------------------|
|-------------------------------------------------------10-------|
|-(14)r-----14b16==(14)-----(14)r==(14)---12pb14r(12)---12pb14r==|
|----------------------------------------------------------------|
|----------------------------------------------------------------|
|----------------------------------------------------------------|
|
| Gtr I
|----------------------------------------------------------------|
|----------------------------------------------------------------|
|---9---9-9--9-------9--9-9---9--9---9--9--9----------9--------9-|
|---7---7-7--7-------7--7-7---7--7---7--7--7----------7--------7-|
|---7---7-7--7-------7--7-7---7--7---7--7--7----------7--------7-|
|---0---0-0--0-------0--0-0---0--0---0--0--0----------0--------0-|


                                                                                                D.S. al Coda
|-------------------------------------------------------------|----------------------------------------------||
|-(10)-10tr12-----(10tr12)-----(10tr12)-----8tr10-(8tr10)-----|----------------------------------------------||
|-(12)--------------------------------------------------------|-9p7-7tr9---------(7tr9)----------------------||
|-------------------------------------------------------------|----------------------------------------------||
|-------------------------------------------------------------|----------------------------------------------||
|-------------------------------------------------------------|----------------------------------------------||
|
|-------------------------------------------------------------|------------------------------------------12--||
|-------------------------------------------------------------|------------------------------------------12--||
|---9---9-----9-9---9------9-9---9------9-9-9------9------9-9-|-9-9-9----9-9------------------14b16-(14)-----||
|---7---7-----7-7---7------7-7---7------7-7-7------7------7-7-|-7-7-7----7-7---------------------------------||
|---7---7-----7-7---7------7-7---7------7-7-7------7------7-7-|-7-7-7----7-7--------------5------------------||
|---0---0-----0-0---0------0-0---0------0-0-0------0------0-0-|-0-0-0----0-0-7-0--5-----7---0----------------||


 Chorus
  &
  Gtr I
|--------------8-----8-----8-----|-----------17-17-17-20-20-20-20-20\-|
|-------------11b12-11b12-11b12--|-----------17-17-17-20-20-20-20-20\-|
|-------------11b12-11b12-11b12--|-------5---17-17-17-20-20-20-20-20\-|
|-0-7-----7-7--------------------|-7-0-7-5-7--------------------------|
|-0-0-7-7-0-0--------------------|-0-0-0---0--------------------------|
|-----5-5------------------------|------------------------------------|


|------------8-----8-----8-----|----------17-17-17-17-17-20-20-20-20\-----|
|-----------11b12-11b12-11b12--|----------17-17-17-17-17-20-20-20-20\-----|
|-------5---11b12-11b12-11b12--|----------17-17-17-17-17-20-20-20-20\-----|
|-7-7-----7--------------------|-7-7---x/-----------------------------7---|
|-0-0-0---7--------------------|-0-0-7-x/-------------------------------7-|
|------------------------------|-----5------------------------------------|


|--------------8-----8-----8-----|-----------17-17-17-20-20-20-20-20\-|
|-------------11b12-11b12-11b12--|-----------17-17-17-20-20-20-20-20\-|
|-------------11b12-11b12-11b12--|-------5---17-17-17-20-20-20-20-20\-|
|-0-7-----7-7--------------------|-7-0-7-5-7--------------------------|
|-0-0-7-7-0-0--------------------|-0-0-0---0--------------------------|
|-----5-5------------------------|------------------------------------|


|------------8-----8-----8-----|----------17-17-17-17-17-20-20-20-20\-----||
|-----------11b12-11b12-11b12--|----------17-17-17-17-17-20-20-20-20\-----||
|-------5---11b12-11b12-11b12--|----------17-17-17-17-17-20-20-20-20\-----||
|-7-7-----7--------------------|-7-7---x/-----------------------------7---||
|-0-0-0---7--------------------|-0-0-7-x/-------------------------------7-||
|------------------------------|-----5------------------------------------||


                    ~~~~~~~~~~
|----------------|---------------|----------------------|-------------|
|----------------|---------------|----------------------|-------------|
|---x---7-6-5----|-(5)----(5)----|---x-x-7-6-(6)-5-(5)--|-(5)---------|
|-7-x-0----------|---------------|-7-x-x----------------|-------------|
|-0--------------|---------------|-0--------------------|-------------|
|----------------|---------------|----------------------|-----------0-|


|-------10-9-8----|-(8)--------|
|-----------------|------------|
|---x-x--7-6-5----|-(5)--------|
|-7-x-x-----------|------------|
|-0---------------|------------|
|-----------------|------------|


|----------------------|------------------------||
|----------------------|--------8-8---8-8---8---||
|---x-x-7-6-(6)-5-(5)--|-(5)--------5-----5---5-||
|-7-x-x----------------|------------------------||
|----------------------|------------------------||
|----------------------|------------------------||


  Gtr II
|---------------------------------|---------------------------------------|
|---------------------------------|-----17------17------17--------17------|
|---------------------------------|-----17-x--x-17--x-x-17--x---x-17--x-x-|
|---------------------------------|--------x--x-----x-x-----x---x-----x-x-|
|---------------------------------|---------------------------------------|
|---------------------------------|---------------------------------------|
|
| Gtr I
|---------------------------------|----------------------8/---------------|
|---------------------------------|----------------------8/---------------|
|---------------------------------|-------------------------------17-17---|
|---7-x-12-12-11-10-10-10-10-10---|------x-x-12-11-10-------------17-17---|
|-7-7-x-12-12-11-10-10-10-10-10-0-|-7-7--x-x-12-11-10---------/15---------|
|-5-5-x-10-10--9--8--8--8--8--8-0-|-5-5--x-x-10--9--8-------------------0-|


|--------------------------------------|
|-17-----------------------------------|
|-17-----------------------------------|
|--------------------------------------|
|----19-19-----------------------------|
|--------------------------------------|
|
|--------------------------------------|
|--------------------------------------|
|--------------------------------------|
|----------x-x-12-11-10-10-10-10s12-12-|
|--7--7--7-x-x-12-11-10-10-10-10s12-12-|
|--5--5--5-x-x-10--9--8--8--8--8s10-10-|


|-20-20-x-20-20-x-20-20--x-20-20-x-20-20-x-x-|
|-20-20-x-20-20-x-20-20--x-20-20-x-20-20-x-x-|
|-20-20-x-20-20-x-20-20--x-20-20-x-20-20-x-x-|
|--------------------------------------------|
|--------------------------------------------|
|--------------------------------------------|
|
|--------------------------------------------|
|--------------------------------------------|
|--------------------------------------------|
|---------------x-12-11-10--x--x---11-10-----|
|--7----7-----7-x-12-11-10--x--x---11-10-----|
|--5----5-----5-x-10--9--8-------0--9--8-0-0-|


|-20-17-17-----------------------------|
|-20-17-17-----------------------------|
|-20-17-17-----------------------------|
|--------------------------------------|
|--------------------------------------|
|--------------------------------------|
|
|--------------------------------------|
|--------------------------------------|
|--------------------------------------|
|--------7-x-12-12-11-10-10-10-10-10---|
|--7-----7-x-12-12-11-10-10-10-10-10-0-|
|--5-----5-x-10-10--9--8--8--8--8--8-0-|


|-20-20-x-20-20-x-20-20--x-20-20--x--20-20--x-x-|
|-20-20-x-20-20-x-20-20--x-20-20--x--20-20--x-x-|
|-20-20-x-20-20-x-20-20--x-20-20--x--20-20--x-x-|
|-----------------------------------------------|
|-----------------------------------------------|
|-----------------------------------------------|
|
|------------------------------8/---------------|
|------------------------------8/---------------|
|---------------------------------------17-17---|
|-------------x-x-12-11-10--------------17-17---|
|--7----7-----x-x-12-11-10----------/15---------|
|--5----5-----x-x-10--9--8--------------------0-|


|-20-17------------------------------|
|-20-17------------------------------|
|-20-17------------------------------|
|------------------------------------|
|------------------------------------|
|------------------------------------|
|
|------------------------------------|
|------------------------------------|
|------------------------------------|
|---------x-12-12-11-10-10-----------|
|--7----7-x-12-12-11-10-10---------0-|
|--5----5-x-10-10--9--8--8-0-3b4-0---|


|------------------------------------|
|------------------------------------|
|------------------------------------|
|-5tr7-------------------------------|
|------------------------------------|
|------------------------------------|
|
|------------------------------------|
|------------------------------------|
|------------------------------------|
|--------x-12-12-11-10-10-10-10-10-7-|
|-7----7-x-12-12-11-10-10-10-10-10-7-|
|-5----5-x-10-10--9--8--8--8--8--8-5-|


             T          T          T
|----------------------------------------------------|----------15s11-|-x--------*|
|----------------------------------------------------|----------------|----------*|
|----------------------------------------------------|----------------|----------*|
|-5h7---5h7-10p5h==7---10p5h7-----10-----------------|----------------|----------*|
|-----7-------------------------------7--------------|----------------|----------*|
|----------------------------------------------------|----------------|----------*|
|
|----------------------------------------------------|----------------|----------*|
|--------------5-------------------------------------|--------5-------|----------*|
|--------------5b6------------5b6----(5)---5b6-------|--------5-------|----------*|
|----------------------------------------7-----7-7-7-|-7------7-------|----------*|
|-7-----7------------0----0--------------------7-7-7-|-7--------------|----------*|
|-5-----5--------------------------------------5-5-5-|-5--------------|----------*|


The Red Hot Chili Peppers albums
2006 Stadium Arcadium
2004 Live in Hyde Park
2002 By The Way
1999 Californication
1995 One Hot Minute
1994 Out In L.A.
1992 Blood Sugar Sex Magik
1989 Mother's Milk
1987 The Uplift Mofo Party Plan
1985 Freaky Styley
1984 Red Hot Chili Peppers
Blood Sugar Sex Magik tabs
01The Power of Equality tabbass tab
02If You Have to Ask tabbass tab
03Breaking the Girl tabbass tab
04Funky Monks tabbass tab
05Suck My Kiss tabbass tab
06I Could Have Lied tabbass tab
07Mellowship Slinky in B Major tabbass tab
08The Righteous & The Wicked tabbass tab
09Give It Away tabbass tab
10Blood Sugar Sex Magik tabbass tab
11Under The Bridge tabbass tab
12Naked in the Rain tabbass tab
13Apache Rose Peacock tabbass tab
14The Greeting Song tabbass tab
15My Lovely Man tabbass tab
16Sir Psycho Sexy tabbass tab
17They're Red Hot tabbass tab

 

1