Search tabs:
Browse artists: 0-9 | A | B | C | D | E | F | G | H | I | J | K | L | M | N | O | P | Q | R | S | T | U | V | W | X | Y | Z
/ The Rolling Stones / December's Children (And Everybody's) (1965) / As Tears Go By guitar tab

G                 Am                 C
E|----------------|-----3-3-3------|-------0-0-0-----|-------0-0-0----|
B|----------------|-----3-3-3------|-------1-1-1-----|-------1-1-1----|
G|----------------|-----0-0-0------|-------2-2-2-----|-------0-0-0----|
D|----------------|-----0-0-0------|-------2-2-2-----|-------2-2-2----|
A|----------------|-----x-x-x------|---2-0-----------|-0-2-3----------|
E|--------------0-|-3--------------|-3---------------|----------------|

                  It is the evening      of the        day


          D                 G               Am                 C
E|-------2-2-2----|-2h3---3-3-3----|-------0-0-0-----|-------0-0-0----|
B|-------3-3-3----|-3-----3-3-3----|-------1-1-1-----|-------1-1-1----|
G|-------2-2-2----|-2-----0-0-0----|-------2-2-2-----|-------0-0-0----|
D|---2-0----------|-------0-0-0----|-------2-2-2-----|-------2-2-2----|
A|-3--------------|-------x-x-x----|---2-0-----------|-0-2-3----------|
E|----------------|---0-3----------|-3---------------|----------------|

                    I sit and watch     the children   play

          D                 C               Am                G
E|-------2-2-2----|-------0-0-0----|-------0-0-0-----|------3-3-3-----|
B|-------3-3-3----|-------1-1-1----|-------1-1-1-----|------3-3-3-----|
G|-------2-2-2----|-------0-0-0----|-------2-2-2-----|------0-0-0-----|
D|---2-0----------|-0-----2-2-2----|-------2-2-2-----|------0-0-0-----|
A|-3--------------|---0-3----------|-3-2-0-----------|-0--------------|
E|----------------|----------------|-----------------|---0-3----------|

                   Smiling faces      I can see,           but not

         E                  C                C                D
E|-----0-0-0------|-------0-0-0----|-------0-0-0-----|-------2-3-2----|
B|-----0-0-0------|-------1-1-1----|-------1-1-1-----|-------3-3-3----|
G|-----1-1-1------|-------0-0-0----|-------0-0-0-----|-------2-2-2----|
D|-----2-2-2------|-------2-2-2----|-------2-2-2-----|---2-0----------|
A|-----2-2-2------|-0-2-3----------|-3-2-3-----------|-3--------------|
E|-2-0------------|----------------|-----------------|----------------|

   for me                   I sit and watch             as tears go by


E|---2-2-2--------|---2-2-2---------||
B|---3-3-3--------|---3-3-3---------||
G|---2-2-2--------|---2-2-2--------o||
D|----------------|----------------o||
A|----------------|-----------------||
E|----------------|-----------------||



VERSES:

It is the evening of the day
I sit and watch the children play
Smiling faces I can see, but not for me
I sit and watch as tears go by

My riches can't buy everything
I want to hear the children sing
All I ever hear is the sound of rain falling on the ground
I sit and watch as tears go by

It is the evening of the day
I sit and watch the children play
Doin' things I used to do, they think they are new
I sit and watch as tears go by
Mm mm mm...



 AS TEARS GO BY  by Mick Jagger, Keith Richards and Andrew Oldham

This is my tribute to all the crazy people, who sit night upon
night and transcribe songs for all the stupid people like me,
who not be able to find the chords for all the great songs.

I added this transcription, because in this archive I did not find
a finger style to play the song. I think it's absolutely
scandalous ;-) to play the song without picking the notes.
I play this song without any septime chord. It sounds great too.
Each time I play the song, it sounds a little bit different, because
I finger with the chords around. It means, that I play all the notes that
available for the current chord. Sometimes I added a g-note on the e-string
to the D-chord [Dsus4], sometimes I played the e-note on the E-string instead of the
e-note on the D-string. Things I ever do is the bridge [Em]-[Em7]-[C] and the
finger style at the D-chord. This sounds great and if you heard it you won't miss it.
The finger style at the D-chord supports also the melody.
The chords in brackets are "only" interim chords, but it gives the song its own character.

Try to find your own style - it is allways the
better way to play a song in your own style than to make just a (bad) copy of it.

The chords are very simple: [G]  [A]  [C]  [D]

Here is the stuff:
The intro is the same as the verse. Play it two times!

Repeat the following part two times (of course with the correct lyrics ;-))

         It is the        evening of the    da-----------

  G                       A                C

||--------3-------3------|-----------0-----|---------0-----0---|
||-------------0-----0---|-------3-----3---|-------1---------1-|
||-----------0----------0|-----3---------3-|-0---0-------------|
||-----------------------|---3-------------|-----------0-2-----|
||-----------------------|-0---------------|---3---------------|
||-0-3-------------------|-----------------|-------------------|

---------y
 D        [Dsus2] D

|--------2---0----2-----||
|------3------------3---||
|----2----------------2-||
|-0----------0---0------||
|-----------------------||
|-----------------------||


after second repeat switch to the following


    smiling faces  I can se-----e      but not for      me
 C                 D      [Dsus4]D     G               Em       [Em7]

|------------0----|-------2--0---2----|------3---------|----0---------|
|---------1-----1-|-----3----------3--|----0---0-------|---0----------|
|------0----------|---2--------------2|--0-------0---0-|--0-----0---0-|
|-----------------|-0-----------------|------------0---|------2---0---|
|--3--------------|-------------------|----------------|-2------------|
|-----------------|-------------------|-3--------------|--------------|


  I  sit   and    watch as tears go    by
 C                                     D      [Dsus4]D[Dsus4]

|---------0-----------------0------0-|-------2---0---2----0---|
|-------1---1-------------1---1------|-----3----------------3-|
|-----0-------0---0-----0-------0----|---2--------------------|
|--------------2------------------2--|-0----------------------|
|-3-----------------3----------------|------------------------|
|------------------------------------|------------------------|





  [G]  [A]  [C]  [D]



[G] It is the [A] evening of the [C] day.  [D]

[G] I sit and [A] watch the children [C] play.  [D]

[C] Smiling faces [D] I can see, [G] but not for [Em] me.

[C] I sit and watch as tears [Em] go [D] by.



[G] My riches [A] can't buy every[C]thing.  [D]

[G] I want to [A] hear the children [C] sing.  [D]

[C] All I hear [D] is the sound [G] of rain falling [Em] on the ground.

[C] I sit and watch as tears [Em] go [D] by.



  Solo (the same as the intro)



[G] It is the [A] evening of the [C] day.  [D]

[G] I sit and [A] watch the children [C] play.  [D]

[C] Doing things I [D] used to do [G] they think are [Em] new.

[C] I sit and watch as tears [Em] go [D] by.



  [G]  [A]  [C]  [D]

  [G]  [A]  [C]  [D]

Have fun

Thomas Bernard, Frankfurt/Main


The Rolling Stones albums
2005 A Bigger Bang
1997 Bridges to Babylon
1996 The Rolling Stones Rock and Roll Circus
1994 Voodoo Lounge
1989 Steel Wheels
1986 Dirty Work
1983 Undercover
1981 Tattoo You
1980 Emotional Rescue
1978 Some Girls
1976 Black and Blue
1974 It's Only Rock 'N Roll
1973 Goats Head Soup
1972 Exile on Main St.
1971 Sticky Fingers
1969 Let It Bleed
1968 Beggars Banquet
1967 Their Satanic Majesties Request
1967 Flowers
1967 Between the Buttons
1966 Aftermath
1965 December's Children (And Everybody's)
1965 Out of Our Heads
1965 The Rolling Stones, Now!
1964 12 X 5
1964 The Rolling Stones (England's Newest Hitmakers)
December's Children (And Everybody's) tabs
05The Singer Not the Song tabbass tab
06Route 66 tabbass tab
07Get Off of My Cloud tabbass tab
08I'm Free tabbass tab
09As Tears Go By tabbass tab

 

1