Search tabs:
Browse artists: 0-9 | A | B | C | D | E | F | G | H | I | J | K | L | M | N | O | P | Q | R | S | T | U | V | W | X | Y | Z
/ The Rolling Stones / Sticky Fingers (1971) / Brown Sugar guitar tab

Song: Brown Sugar
Artist: The Rolling Stones

Gtr I (D G D G B D) - 'Keith Richards - Rhythm w/light dist'
Gtr II (D G D G B D) - 'Mick Taylor - Rhythm / Lead w/dist'
Gtr III (D G D G B D) - 'Keith Richards - Rhythm steel string acoustic'

Intro

 4/4
  Gtr I

|------------------|-----------------|
|----13---12-----5-|---5---6-6---5---|
|----12---12-----5-|---5---5-5---5---|
|----14---12-----5-|---5---7-7---5---|
|----12---12-----5-|---5---5-5---5---|
|------------------|-----------------|
|
| Gtr II
|
|------------------|-----------------|
|------------------|-----------------|
|------------------|-----------------|
|------------------|-----------0-3-5-|
|------------------|---------5-------|
|------------------|-----------------|



|---------------------|---------------------|
|-------13---12-----5-|-----5---6--6---5----|
|-------12---12-----5-|-----5---5--5---5----|
|-------14---12-----5-|-----5---7--7---5----|
|-------12---12-----5-|-----5---5--5---5----|
|---------------------|---------------------|
|
|  ~~~~
|
|---------------------|---------------------|
|-------------------5-|-(5)-----------------|
|-------------------5-|-(5)-----------------|
|-(5)---------------5-|-(5)----------0-3-5--|
|-------------------5-|-(5)-------/5--------|
|---------------------|---------------------|



|---------------------|--------------------|
|-------13---12-----5-|-----5---6--6---5---|
|-------12---12-----5-|-----5---5--5---5---|
|-------14---12-----5-|-----5---7--7---5---|
|-------12---12-----5-|-----5---5--5---5---|
|---------------------|--------------------|
|
|  ~~~~
|
|---------------------|--------------------|
|-------------------5-|-(5)----------------|
|-------------------5-|-(5)----------------|
|-(5)---------------5-|-(5)----------0-3-5-|
|-------------------5-|-(5)-------/5-------|
|---------------------|--------------------|



|-----------------------|--------------------|
|-------13---12-----5---|-----5---6-6--5-----|
|-------12---12-----5---|-----5---5-5--5-----|
|-------14---12-----5---|-----5---7-7--5-----|
|-------12---12-----5---|-----5---5-5--5-----|
|-----------------------|--------------------|
|
|  ~~~~
|
|-----------------------|--------------------|
|-------------------5-5-|-5--------------8-8-|
|-------------------5-5-|-5--------------8-8-|
|-(5)---------------5-5-|-5--------------8-8-|
|-------------------5-5-|-5--------------8-8-|
|-----------------------|--------------------|


  Gtr I

|------8-----8---------|-----5-5---5-5---1---|
|------8-----8-8---5---|-(5)-6-6---6-5---1---|
|-----10----10-8---5---|-(5)-5-5---5-5---1---|
|------8-----8-8---5---|-(5)-5-5---5-5---1---|
|------8-----8-8---5---|-(5)-5-5---5-5---1---|
|----------------------|---------------------|
|
| Gtr II
|
|----------------------|---------------------|
|-8----9-----9-8-------|-------6---6-5-------|
|-8----8-----8-8---5---|-(5)---5---5-5---1---|
|-8---10----10-8---5---|-(5)---7---7-5---1---|
|-8----8-----8-8---5---|-(5)---5---5-5---1---|
|----------------------|---------------------|
|
| Gtr III
|
|---8--8--8--8-8-------|-----5-5-5-5-5-5-1-1-|
|-8-8--8--8--8-8-x-5-5-|--5--6-6-6-6-5-5-1-1-|
|-8-8-10-10-10-8-x-5-5-|--5--5-5-5-5-5-5-1-1-|
|-8-8--8--8--8-8-x-5-5-|--5--5-5-5-5-5-5-1-1-|
|-8-8--8--8--8-8-x-5-5-|--5--5-5-5-5-5-5-1-1-|
|----------------------|---------------------|
|-Rhy Fig 1


|-(1)-1-1-----3-3---5---|-(5)-5-5---5-----8-|
|-(1)-1-1-3---3-3---5---|-(5)-6-6---5-----8-|
|-(1)-3-1-3---5-3---5---|-(5)-5-5---5-----8-|
|-(1)-1-1-3---3-3---5---|-(5)-5-5---5-----8-|
|-(1)-1-1-3---3-3---5---|-(5)-5-5---5-----8-|
|-----------------------|-------------------|
|
|
|-----------------------|-------------------|
|-------------4-3---6---|-(6)-6-6---5-----8-|
|-(1)---1-----3-3---5---|-(5)-5-5---5-----8-|
|-(1)-3-1-----5-3---7---|-(7)-7-7---5-----8-|
|-(1)-1-1-----3-3---5---|-(5)-5-5---5-----8-|
|-----------------------|-------------------|
|
|
|--1--1-1-----3-3-------|-------------------|
|--1--2-1-x-3-4-3---6-6-|--6--6-6-5-5-5-x-8-|
|--1--1-1-x-3-3-3---5-5-|--5--5-5-5-5-5-x-8-|
|--1--3-1-x-3-5-3-3-7-7-|--7--7-7-5-5-5-x-8-|
|--1--1-1-x-3-3-3-3-5-5-|--5--5-5-5-5-5-x-8-|
|-----------------------|-------------------|
                              end Rhy Fig 1-|

w/Rhy Fig 1

|-(8)--8--8-----8-8-------|-----5-5---5-5---1---|
|-(8)--8--8-----8-8---5---|-(5)-6-6---6-5---1---|
|-(8)-10-10----10-8---5---|-(5)-5-5---5-5---1---|
|-(8)--8--8-----8-8---5---|-(5)-5-5---5-5---1---|
|-(8)--8--8-----8-8---5---|-(5)-5-5---5-5---1---|
|-------------------------|---------------------|
|
|
|-------------------------|---------------------|
|-(8)-----9-----9-8-------|-------6---6-5-------|
|-(8)-----8-----8-8---5---|-(5)---5---5-5---1---|
|-(8)----10----10-8---5---|-(5)---7---7-5---1---|
|-(8)-----8-----8-8---5---|-(5)---5---5-5---1---|
|-------------------------|---------------------|



|-(1)-1-1-----3-3---5---|-(5)-5-5---5---5---||
|-(1)-1-1-3---4-3---6---|-(6)-6-6---5---5---||
|-(1)-3-1-3---3-3---5---|-(5)-5-5---5---5---||
|-(1)-1-1-3---3-3---5---|-(5)-5-5---5---5---||
|-(1)-1-1-3---3-3---5---|-(5)-5-5---5---5---||
|-----------------------|-------------------||
|
|
|-----------------------|-------------------||
|-------------4-3---6---|-(6)-6-6---5---5-5-||
|-(1)---1-----3-3---5---|-(5)-5-5---5---5-5-||
|-(1)-3-1-----5-3---7---|-(7)-7-7---5---5-5-||
|-(1)-1-1-----3-3---5---|-(5)-5-5---5---5-5-||
|-----------------------|-------------------||


 Verse 1
  Gtr I

|-------------------|------------------|
|-----5-----5-------|---5-----5--------|
|-----5-----5-------|---5-----5--------|
|-----5-----5-------|---5-----5--------|
|-----5-----5-------|---5-----5--------|
|-------------------|------------------|
|
| Gtrs II, III
|
|-------------------|------------------|
|-(5)-------------5-|-------------x----|
|-(5)-5-----5-----5-|---5-----5---x----|
|-(5)-5-7-5-5-5-7-5-|-5-5-7-5-5-5-x-10-|
|-(5)---------------|---------------10-|
|-------------------|------------------|
|-Rhy Fig 2


|-----------------------|--------------------|
|----10-11----10--------|----10-11--10-----5-|
|----10-10----10--------|----10-10--10-----5-|
|----10-12----10--------|----10-12--10-----5-|
|----10-10----10--------|----10-10--10-----5-|
|-----------------------|--------------------|
|
|
|-----------------------|--------------------|
|-----------------------|-----------10-------|
|----10-10----10-----10-|-10----10--10--10-x-|
|-10-10-12----13-----10-|-13----12--10--12-x-|
|-10-------10-----14----|----10------------x-|
|-----------------------|--------------------|



|-------------------|---------------------|-----------------|--------------||
|-(5)---5-----5-----|-5-----5-(5)-5---3-3-|-3---3--3----5-5-|---5-5--5--5--||
|-(5)---5-----5-----|-5-----5-(5)-5---3-3-|-3---3--3----5-5-|---5-5--5--5--||
|-(5)---5-----5-----|-5-----5-(5)-5---3-3-|-3---3--3----5-5-|---5-5--5--5--||
|-(5)---5-----5-----|-5-----5-(5)-5---3-3-|-3---3--3----5-5-|---5-5--5--5--||
|-------------------|---------------------|-----------------|--------------||
|
|
|-------------------|---------------------|-----------------|--------------||
|-------------------|---------------------|---3-4--3----5-5-|-5-3-5--------||
|-----5-----5-------|-5--------5------x-x-|-3-3-3--3----5-5-|-5-3-5--5--5--||
|-----5-7-5-5---7-5-|-5---7-5--5----7-x-x-|-3-3-5--3----5-5-|-5-3-5--5--5--||
|---------5-------5-|---5-5----5----5-x-x-|-3------3--3-5-5-|-5------5--5--||
|-------------------|---------------------|-----------------|--------------||
                                                             end Rhy Fig 2-|

 Chorus

  Gtr I

|-------------------|-------------------------|
|-0------------3--0-|--5--3-----0-(0)-------5-|
|-0------------3--0-|--5--3-----0-(0)-------5-|
|-0----------0-3--0-|--5--3-----0-(0)-------5-|
|-0--------4-0------|-----------0-(0)-------5-|
|-------------------|-------------------------|
|
| Gtr II
|                 ~~~~~~~~
|
|-------------------|-------------------------|
|-------------------|-------------------------|
|-0------------0----|-------3b4----5--3b4-----|
|-0----------0---/5-|-(5)-------5---------5---|
|-0------3s4--------|-------------------------|
|-------------------|-------------------------|
|
| Gtr III
|
|-0--0-0---0-0-0--0-|--0--0-0---0--0--0---0---|
|-0--0-0---0-0-0--0-|--0--0-0---0--0--0---0-5-|
|-0--0-0---0-0-0--0-|--0--0-0---0--0--0---0-5-|
|-0--0-0---0-0-0--0-|--0--0-0---0--0--0---0-5-|
|-0--0-0---0-0-0--0-|--0--0-0---0--0--0---0-5-|
|-------------------|-------------------------|



|-------------------|---------------------|
|-(5)-5-6---5-6---5-|-(5)-5-6---5-6-5-0---|
|-(5)-5-5---5-5---5-|-(5)-5-5---5-5-5-0---|
|-(5)-5-7---5-7---5-|-(5)-5-7---5-7-5-0---|
|-(5)-5-5---5-5---5-|-(5)-5-5-------5-0---|
|-------------------|---------------------|
|
|
|-------------------|--5------------------|
|-----5-6-------6-5-|--5--5-6---5---5-----|
|-----5-5---5---5-5-|--5--5-5---5---5-0-0-|
|-----5-7---5---7-5-|--5--5-7---5---5-0-0-|
|-----5-5---5-----5-|--5--5-5---5---5-0-0-|
|-------------------|---------------------|
|
|
|-------------------|---------------------|
|-(5)-5-6-5-5-5-6-5-|--5--5-6-5-5-6-5-0-0-|
|-(5)-5-5-5-5-5-5-5-|--5--5-5-5-5-5-5-0-0-|
|-(5)-5-7-5-5-5-7-5-|--5--5-7-5-5-7-5-0-0-|
|-(5)-5-5-5-5-5-5-5-|--5--5-5-5-5-5-5-0-0-|
|-------------------|---------------------|


                                      To Dbl. Coda-|

|---------------------|-----------------------------|
|-(0)------------3--0-|--5--3-------0-(0)-------5-5-|
|-(0)------------3--0-|--5--3-------0-(0)-------5-5-|
|-(0)----------0-3--0-|--5--3-------0-(0)-------5-5-|
|-(0)--------4-0------|-------------0-(0)-------5-5-|
|---------------------|-----------------------------|
|
|                   ~~~~~~~~
|
|---------------------|-----------------------------|
|---------------------|-----------------------------|
|--0-------------0----|-------3b3.5----5--3b4-------|
|--0-----------0---/5-|-(5)---------5---------5-----|
|--0-------3s4--------|-----------------------------|
|---------------------|-----------------------------|
|
|
|--0---0-0---0-0-0--0-|--0--0-0-----0--0--0---0-----|
|--0---0-0---0-0-0--0-|--0--0-0-----0--0--0---0-5---|
|--0---0-0---0-0-0--0-|--0--0-0-----0--0--0---0-5---|
|--0---0-0---0-0-0--0-|--0--0-0-----0--0--0---0-5---|
|--0---0-0---0-0-0--0-|--0--0-0-----0--0--0---0-5---|
|---------------------|-----------------------------|


     To Triple Coda-|              To Coda-|

|-------------------|----------------------|
|--5--5-6---5-6---5-|-(5)-5-6-5-5-6-5-8----|
|--5--5-5---5-5---5-|-(5)-5-5-5-5-5-5-8----|
|--5--5-7---5-7---5-|-(5)-5-7-5-5-7-5-8----|
|--5--5-5---5-5---5-|-(5)-5-5-5-5-5-5-8----|
|-------------------|----------------------|
|
|
|-------------------|----------------------|
|-----5-6---5---6-5-|-(5)-5-6---5-5---8-8--|
|-----5-5---5---5-5-|-(5)-5-5---5-5---8-8--|
|-----5-7---5---7-5-|-(5)-5-7---5-5-7-8-8--|
|-----5-5---5---5-5-|-(5)-5-5---5-5-5-8-8--|
|-------------------|----------------------|
|
|
|-------------------|----------------------|
|-(5)-5-6-5-5-5-6-5-|--5--5-6-5-5-6-5-8-8--|
|-(5)-5-5-5-5-5-5-5-|--5--5-5-5-5-5-5-8-8--|
|-(5)-5-7-5-5-5-7-5-|--5--5-7-5-5-7-5-8-8--|
|-(5)-5-5-5-5-5-5-5-|--5--5-5-5-5-5-5-8-8--|
|-------------------|----------------------|



|------------------------|---------------------|
|-(8)-8--8-----9-8---5---|-(5)-6-6---6-5-0-1---|
|-(8)-8-10----10-8---5---|-(5)-5-5---5-5-0-1---|
|-(8)-8--8-----8-8---5---|-(5)-5-5---5-5-0-1---|
|-(8)-8--8-----8-8---5---|-(5)-5-5---5-5-0-1---|
|------------------------|---------------------|
|
|
|------------------------|---------------------|
|--8-----------9-----5---|-(5)---5---6-5---1-1-|
|--8--8--8-----8-8---5---|-(5)---5---5-5---1-1-|
|--8--8--8----10-8---5---|-(5)---5---7-5---1-1-|
|--8--8--8-----8-8---5---|-(5)---5---5-5---1-1-|
|------------------------|---------------------|
|
|
|------------------------|-----5-5-5-5-5-5-----|
|--8--8-11-11--1-8-x-5-5-|--5--6-6-6-6-5-5-1-1-|
|--8--8-10-10-10-8-x-5-5-|--5--5-5-5-5-5-5-1-1-|
|--8--8--8--8--8-8-x-5-5-|--5--5-5-5-5-5-5-1-1-|
|--8--8--8--8--8-8-x-5-5-|--5--5-5-5-5-5-5-1-1-|
|------------------------|---------------------|



|-----------------------|----------------------||
|-(1)-1-1-3---3-3-5-6---|-(6)-6---6-5-5-5-5----||
|-(1)-3-1-3---5-3-5-5---|-(5)-5---5-5-5-5-5----||
|-(1)-1-1-3---3-3-5-5---|-(5)-5---5-5-5-5-5----||
|-(1)-1-1-3---3-3-5-5---|-(5)-5---5-5-5-5-5----||
|-----------------------|----------------------||
|
|
|-----------------------|----------------------||
|--1----------4-3---6-6-|--6--6-6---5---x-5----||
|--1----1-----3-3---5-5-|--5--5-5---5---x-5----||
|--1--3-1-----5-3---7-7-|--7--7-7---5---x-5----||
|--1--1-1-----3-3---5-5-|--5--5-5---5---x-5----||
|-----------------------|----------------------||
|
|
|-----------------------|-----5-5-5-5-5-5-5-5--||
|--1----1-------3-3-6-6-|--6--6-6-6-5-5-5-5-5--||
|--1----1-5-5-5-3-3-5-5-|--5--5-5-5-5-5-5-5-5--||
|--1----1-3-3-3-3-3-7-7-|--7--7-7-7-5-5-5-5-5--||
|--1----1-3-3-3-3-3-5-5-|--5--5-5-5-5-5-5-5-5--||
|-----------------------|----------------------||


 Verse 2
w/Rhy Fig 2
  Gtr I

|-----------------|--------------------|
|-----5-----5-----|-5-----5-(5)---5----|
|-----5-----5-----|-5-----5-(5)---5----|
|-5---5-----5-----|-5-----5-(5)---5----|
|-5---------------|-5-----5-(5)--------|
|-----------------|--------------------|



|-------------------------|------------------------|
|----10-11----10-11----10-|-(10)-10-11--10-11----5-|
|----10-10----10-10----10-|-(10)-10-10--10-10----5-|
|----10-12----10-12----10-|-(10)-10-12--10-12----5-|
|----------------------10-|-(10)-----------------5-|
|-------------------------|------------------------|


                                                                 D.S. al Coda

|-------------------|--------------------|-----3-----------|------------------||
|-(5)-------5-6---5-|-(5)-5-5---5----3-3-|-3-3-3--3--x-5-5-|-5-5-5--5--5------||
|-(5)-------5-5---5-|-(5)-5-5---5----3-3-|-3-3-3--3--x-5-5-|-5-5-5--5--5-0-0--||
|-(5)---7---5-7---5-|-(5)-5-5---5----3-3-|-3-3-3--3--x-5-5-|-5-5-5--5--5-0-0--||
|-(5)---5---5-5---5-|-(5)-5-5---5----3-3-|-3-3----3--x-5-5-|-5-5-5--5--5-0-0--||
|-------------------|--------------------|-----------------|------------------||


   Sax Solo
    &
    Gtr I

||------------------------|---------------------|
||o-8--8--9-----9-8---5---|-(5)-6-6---6-5---1---|
||--8--8-10----10-8---5---|-(5)-7-7---7-5-0-1---|
||--8--8--8-----8-8---5---|-(5)-5-5---5-5-0-1---|
||o-8--8--8-----8-8---5---|-(5)-5-5---5-5-0-1---|
||------------------------|---------------------|
|
|   Gtr II
|
||------------------------|---------------------|
||o-8-----9-----9-8---5---|-(5)---6---6-5---1---|
||--8-----8-----8-8---5---|-(5)---5---5-5---1---|
||--8-----8-----8-8---5---|-(5)---7---7-5---1---|
||o-8-----8-----8-8---5---|-(5)---5---5-5---1---|
||------------------------|---------------------|
|
|   Gtr III
|
||------------------------|---------------------|
||o-8--9--9--9--9-8---5-5-|--5--6-6-6-6-5---1-1-|
||--8-10-10-10-10-8---5-5-|--5--7-7-7-7-5---1-1-|
||--8--8--8--8--8-8---5-5-|--5--5-5-5-5-5---1-1-|
||o-8--8--8--8--8-8---5-5-|--5--5-5-5-5-5---1-1-|
||------------------------|---------------------|


                         1.,2.,3.

|-----------------------|----------------------||
|-(1)-2-1-3---4-3-3S5---|-(5)-6-6--5---/8-8---o||
|-(1)-3-1-3---5-3-3S5---|-(5)-5-5--5---/8-8----||
|-(1)-1-1-3---3-3-3S5---|-(5)-5-5--5---/8-8----||
|-(1)-1-1-3---3-3-3S5---|-(5)-5-5--5---/8-8---o||
|-----------------------|----------------------||
|
|
|-----------------------|----------------------||
|-(1)-2-1-----4-3---6-6-|--6--6-6--5------8---o||
|-(1)-1-1-----5-3---5-5-|--5--5-5--5------8----||
|-(1)-3-1-----6-3---7-7-|--7--7-7--5------8----||
|-(1)---1-----3-3---5-5-|--5--5-5--5------8---o||
|-----------------------|----------------------||
|
|
|-----------------------|----------------------||
|--1--2-1-----4-3---6-6-|--6--6-6--5------8-8-o||
|--1--1-1-----5-3-3-5-5-|--5--5-5--5------8-8--||
|--1--3-1-3-3-3-3-3-7-7-|--7--7-7--5------8-8--||
|--1----1-3-3-3-3-3-5-5-|--5--5-5--5-5--7-8-8-o||
|-----------------------|----------------------||


  4.
  D.S.S. al Dbl. Coda
                     &&

|--------------------||-------------------|--------------------||
|-(5)-3-5--5--5--0-0-||--5--5-6---5-6---5-|-(5)-5-6---5-6---5--||
|-(5)-3-5--5--5--0-0-||--5--5-5---5-5---5-|-(5)-5-5---5-5---5--||
|-(5)-3-5--5--5--0-0-||--5--5-7---5-7---5-|-(5)-5-7---5-7---5--||
|-(5)---5--5--5--0-0-||--5--5-5---5-5---5-|-(5)-5-5---5-5---5--||
|--------------------||-------------------|--------------------||
|
|
|--------------------||-------------------|--------------------||
|--6--6-6--5--5\-----||-----5-6---5-------|-----5-6---5--------||
|--5--5-5--5--5\-----||-----5-5---5-------|-----5-5---5--------||
|--7--7-7--5--5\-----||-----5-7---5-------|-----5-7---5---7-5--||
|--5--5-5--5--5\-----||-----5-5---5-------|-----5-5---5---5-5--||
|--------------------||-------------------|--------------------||
|
|
|--------------------||-------------------|--------------------||
|--6--6-6--5--5--0-0-||-(5)-5-6-5-5-5-6-5-|--5--5-6-5-5--------||
|--5--5-5--5--5--0-0-||-(5)-5-5-5-5-5-5-5-|--5--5-5-5-5---5-5--||
|--7--7-7--5--5--0-0-||-(5)-5-7-5-5-5-7-5-|--5--5-7-5-5---7-5--||
|--5--5-5--5--5--0-0-||-(5)-5-5-5-5-5-5-5-|--5--5-5-5-5---5-5--||
|--------------------||-------------------|--------------------||


 Verse 3
w/Rhy Fig 2
  Gtr I

|-------------------|--------------------|
|-(5)---5-----5-----|-5-----5-(5)-5-5----|
|-(5)---5-----5-----|-5-----5-(5)-5-5----|
|-(5)---5-----5-----|-5-----5-(5)-5-5----|
|-(5)---------------|-------5-(5)-5-5----|
|-------------------|--------------------|



|---------------------------|--------------------------|
|-10----10----(10)----11----|-10-11----10-(10)----10-x-|
|-10----10----(10)----10----|-10-10----10-(10)----10-x-|
|-10----10----(10)----12----|-10-12----10-(10)----10-x-|
|--------0-----(0)-10-------|------------------10----x-|
|---------------------------|--------------------------|

                                                          D.S. al Triple Coda-|

|----------------|---------------------|-------------------|------------------||
|---------5----5-|-(5)---6---5-6---3---|-(3)---3--3----5-5-|-5-3-5--5--5------||
|---5-----5--5-5-|-(5)-5-5---5-5---3---|-(3)---3--3--0-5-5-|-5-3-5--5--5-0-0--||
|---5---5-5--5-5-|-(5)-5-7---5-7---3---|-(3)---3--3--0-5-5-|-5-3-5--5--5-0-0--||
|---5---5-5--5---|-----5-----------3---|-(3)---3--3--0-5-5-|-5---5--5--5-0-0--||
|----------------|---------------------|-------------------|------------------||




                         Outro

|----------------------||---------------------------|
|-(5)-5-6--5-6---12-12-||------12-----(12)----13p12-|
|-(5)-5-5--5-5---12-12-||-12---12-----(12)-12-12-12-|
|-(5)-5-7--5-7---12-12-||-12---12-----(12)-12-14p12-|
|-(5)-5-5--5-5---12-12-||-12---12-----(12)-12-------|
|----------------------||---------------------------|
|
|                                                 ~~
|
|----------------------||---------------------------|
|-(5)-5-6--------------||---------------------------|
|-(5)-5-5--5-5----0--0-||--0-------------------0----|
|-(5)-5-7--5-5-7--0--0-||--0----------------0-----5-|
|-(5)-5-5--5-5-5--0--0-||--0--------3s==5-----------|
|----------------------||---------------------------|
|
|
|----------------------||---------------------------|
|--5--5-6--5-5----0--0-||-------0--------------0----|
|--5--5-5--5-5----0--0-||--0-0--0-0-----0---0--0--0-|
|--5--5-7--5-5-7--0--0-||--0-0--0-0-----0---0--0--0-|
|--5--5-5--5-5-5--0--0-||--0-0----0-----0---0-----0-|
|----------------------||---------------------------|
                        |-Rhy Fig 3


|--------------------------------|-------------------|----------------------|
|-12--13-------12-(12)------12---|-5-5-6---5-6-----5-|-(5)-5-6---5-6--------|
|-12--12-------12-(12)-12---12---|-5-5-5---5-5-----5-|-(5)-5-5---5-5---12---|
|-12--14-------12-(12)-12---12---|-5-5-7---5-7-----5-|-(5)-5-7---5-7---12---|
|----------------------12---12---|-5-5-5---5-5-----5-|-(5)-5-5---5-5---12---|
|--------------------------------|-------------------|----------------------|
|
|  ~~~
|
|--------------------------------|-------------------|----------------------|
|-------------------5------------|---5-6---5-----6-5-|-(5)-5-6--------------|
|--------3b3.5------5---3b4------|---5-5---5-----5-5-|-(5)-5-5----------0-0-|
|-(5)------------------------5---|---5-7---5-----7-5-|-(5)-5-7---8---7--0-0-|
|--------------------------------|---5-5---5-----5-5-|-(5)-5-5---5---5--0-0-|
|--------------------------------|-------------------|----------------------|
|
|
|--------------------------------|-------------------|----------------------|
|------0-0------0---0---0----0-5-|-5-5-6-5-5-5-5-6-5-|-(5)-5-6-5-5-5-6--0-0-|
|--0---0-0------0---0---0----0-5-|-5-5-5-5-5-5-5-5-5-|-(5)-5-5-5-5-5-5--0-0-|
|--0---0-0------0---0---0----0-5-|-5-5-7-5-5-5-5-7-5-|-(5)-5-7-5-5-5-7--0-0-|
|--0---0-0------0---0---0----0-5-|-5-5-5-5-5-5-5-5-5-|-(5)-5-5-5-5-5-5--0-0-|
|--------------------------------|-------------------|----------------------|
                                                              end Rhy Fig 3-|

w/Rhy Fig 3 x5

|------------------------|--------------------------------|
|-12---13-----12-13---11s|=12-------13-----12--13-------5-|
|-12---12-----12-12---11s|=12-12----12-----12--12-------5-|
|-12---14-----12-14------|----12----14-----12--14-------5-|
|-12---------------------|----12------------------------5-|
|------------------------|--------------------------------|
|
|
|------------------------|--------------------------------|
|------------------------|--------------------------------|
|--0----------------0----|-----5b7===5-5-5r(5)--3b3.5-0-0-|
|--0--------------0---/5-|--------------------------------|
|--0--------3s=5---------|--------------------------------|
|------------------------|--------------------------------|



|-----------------------|----------------------|
|-(5)-5-6---5-6-------5-|-(5)-5-6---5-6-5------|
|-(5)-5-5---5-5-------5-|-(5)-5-5---5-5-5------|
|-(5)-5-7---5-7-------5-|-(5)-5-7---5-7-5------|
|-(5)-5-5---5-5-------5-|-(5)-5-5---5----------|
|-----------------------|----------------------|
|
|
|-----------------------|----------------------|
|-------6---5-6-------5-|--5--5-6--------------|
|--5--5-5---5-5-----5-5-|--5--5-5---5-5--------|
|--5--5-7---5-7---5h7-5-|--5--5-7---5-5---0----|
|--5--5-5---5-5-------5-|--5------------3------|
|-----------------------|----------------------|



|----------------------|-----0-0-------0--------|
|----0--0----0-0--0----|-----0-0--1----0----1---|
|----0--0----0-0--0----|-----0-0--2----0----2---|
|----0--0----0-0--0----|-----0-0-------0--------|
|----0--0----0-0--0----|------------------------|
|----------------------|------------------------|
|
|
|----------------------|------------------------|
|-----------12---------|------------------------|
|-----------12---12-12-|-12-12---12---12--------|
|---12-14---15---14-12-|-15-12---14---12---14---|
|---12-14--------------|---------14---12---12---|
|----------------------|------------------------|



|-------------------|------------------------|
|---5-6---5-----5---|-----5-6---5---6--------|
|---5-5---5-----6---|-----5-5---5---5--------|
|---5-7---5-----5---|-----5-7---5---7--------|
|---5-5---5-----7---|------------------------|
|---5-5---5-----5---|------------------------|
|
|
|-------------------|------------------------|
|---5-6---------6-5-|-(5)-5-6---5---6--------|
|---5-5---5-----5-5-|-(5)-5-5---5---5-10-11--|
|---5-7---5-----7-5-|-(5)-5-7---5---7-10-11--|
|---5-5---5-----5-5-|-(5)-5-----------10-11--|
|---------5---------|------------------------|



|------------------------|----------------0-0------|
|-----0--1----0-----1----|-----0-0--1-----0-0--1---|
|-----0--0----0-----0----|-----0-0--0-----0-0--0---|
|-----0--2----0-----2----|-----0-0--2-----0-0--2---|
|-----0-------0----------|-----0-0--------0-0------|
|------------------------|-------------------------|
|
|
|------------------------|-------------------------|
|------------------------|---------------12--------|
|-12-12------12-12-12-12-|-12-12---12-12-12--------|
|-12-12-14---15-12-14-12-|-15-12---14-12-12---14---|
|-12-12-14------------12-|--------------------12---|
|------------------------|-------------------------|



|-------------------|----------------------|
|---5-6---5-----6---|-----5-6---5---6------|
|---5-5---5-----5---|-----5-5---5---5------|
|---5-7---5-----7---|-----5-7---5---7------|
|---5-----5---------|-----5-----5----------|
|-------------------|----------------------|
|
|
|-------------------|----------------------|
|---5-6---5-----6---|--5----6---5---6------|
|---5-5---5-----5---|--5----5---5---5------|
|---5-7---5-----7---|--5----7---5---7------|
|---5-5---5-----5---|--5----5---5---5------|
|-------------------|----------------------|



|---------------0------0-----|--------------------------------|
|---0-1---------0------0-----|---0----1------------0----1-----|
|---0-2---------0------0-----|---0----2------------0----0-----|
|---0-0---------0------0-----|---0----0------------0----2-----|
|---0-0---------0------0-----|---0----0------------0----0-----|
|----------------------------|--------------------------------|
|
|
|---5------------------------|---5-----------------5----------|
|---3-3---------3------------|------------------------5-------|
|-----2b4==(2)r-2pb3-5-3b4---|---2b4====(2)r-2pb4r(2)-5-3b4---|
|--------------------------5-|------------------------------5-|
|----------------------------|--------------------------------|
|----------------------------|--------------------------------|



|--------------------------|-----------------------------|
|----5--6----5------6----5-|------5--6----5----6---------|
|----5--5----5------5----5-|------5--5----5----5---------|
|----5--7----5------7----5-|------5--7----5----7---------|
|----5-------5------5----5-|------5--5----5----5---------|
|--------------------------|-----------------------------|
|
|
|---10------10-------------|-----10------10--------------|
|----8-------8-10----------|------8-------8-10-----------|
|--------------10---8b9----|--------------0-10-8b9-------|
|-----------------------10-|-----------------------10----|
|--------------------------|-----------------------------|
|--------------------------|-----------------------------|



|------------------------------|----------------------------------|
|---0-0-1---------0------1---0-|---0----0-1------------0----1---0-|
|---0-0-2---------0------0---0-|---0----0-2------------0----0---0-|
|---0-0-0---------0------2---0-|---0----0-0------------0----2---0-|
|---0-0-0---------0------0-----|---0----0-0------------0----0-----|
|------------------------------|----------------------------------|
|
|
|---5--------------------------|---5-------------------5----------|
|---3---3---------3------------|--------------------------5-------|
|-------2b4==(2)r-2pb3-5-3b4---|---2b4======(2)r-2pb4r(2)-5-3b4---|
|----------------------------5-|--------------------------------5-|
|------------------------------|----------------------------------|
|------------------------------|----------------------------------|



|--------------------------|-----------------------------|
|----5--6----5------6------|------5--6----5----6----0----|
|----5--5----5------5------|------5--5----5----5----0----|
|----5--7----5------7------|------5--7----5----7----0----|
|----5--5----5------5------|------5--5----5----5----0----|
|--------------------------|-----------------------------|
|
|
|---10------10-------------|-----10------10--------------|
|----8-------8-10----------|------8-------8-10-----------|
|--------------10---8b9----|--------------0-10-8b9-------|
|-----------------------10-|-----------------------10----|
|--------------------------|-----------------------------|
|--------------------------|-----------------------------|



|----------------------------------|--------------------------------|
|---0--1----------------0----1-----|---0----1------------0----x---5-|
|---0--2----------------0----0-----|---0----2------------0----x---5-|
|---0--0----------------0----2-----|---0----0------------0----x---5-|
|---0-------------------0----------|---0-----------------0----x---5-|
|----------------------------------|--------------------------------|
|
|
|---5-(5)--------------------------|---5-----------------5----------|
|---3-(3)---------------3--5-------|---3-----------------3--5-------|
|---2-(2)b3==(2)r-2pb3r(2)-5-3b4---|---2b3====(2)r-2pb3r(2)-5-3b4---|
|--------------------------------5-|------------------------------5-|
|----------------------------------|--------------------------------|
|----------------------------------|--------------------------------|
|
|
|----------------------------------|---0----0--0---------0--0-0-----|
|------0---------------------0-----|---0----0--0---------0--0-0---5-|
|-0-0--0------0---------0--0-0---0-|-0-0----0--0---------0--0-0---5-|
|-0-0--0------0---------0--0-0---0-|-0-0----0--0---------0--0-0---5-|
|-0-0---------0---------0--0-----0-|-0-0----0--0---------0--0-0---5-|
|----------------------------------|--------------------------------|



|---------------------------------------------|----------------------5-(5)-----*|
|-(5)-5----------6-------5-5----------6-------|-5-5----------6-------5-(5)-----*|
|-(5)-5----------5-------5-5----------5-------|-5-5----------5-------5-(5)-----*|
|-(5)-5----------7-------5-5----------7-------|-5-5----------7-------5-(5)-----*|
|-(5)-5----------5-------5-5----------5-------|-5-5----------5-------5-(5)-----*|
|---------------------------------------------|--------------------------------*|
|
|
|-----8------------------8-8------------------|-8-8------------------8-(8)-----*|
|-----8-10b11==(10)r(10)-8-8-10b11==(10)r(10)-|-8-8-10b11==(10)r(10)-8-(8)-----*|
|-------10b12==(10)r(10)-----10b12==(10)r(10)-|-----10b12==(10)r(10)-----------*|
|---------------------------------------------|--------------------------------*|
|---------------------------------------------|--------------------------------*|
|---------------------------------------------|--------------------------------*|
|
|
|---------------------------------------------|--------------------------------*|
|--5--5----------6----5--5-5----------6----5--|-5-5------------------5-(5)-----*|
|--5--5----------5----5--5-5----------5----5--|-5-5----------0-------5-(5)-----*|
|--5--5----------7----5--5-5----------7----5--|-5-5------------------5-(5)-----*|
|--5--5----------5----5--5-5----------5----5--|-5-5------------------5-(5)-----*|
|---------------------------------------------|--------------------------------*|



prsrule@hotmail.com


From: Harlan L Thompson 
BROWN SUGAR- The Rolling Stones

TUNING: D G D G B D

    G   Gsus  G3  Bb Bbsus   C  Csus  Eb  Ebsus  F  Fsus  G2  G2sus
D --0- --0- --0- --3- --3- --5- --5- --8- --8- -10- -10- -12- -12-
B --0- --1- --0- --3- --4- --5- --6- --8- --9- -10- -11- -12- -13-
G --0- --0- --4- --3- --3- --5- --5- --8- --8- -10- -10- -12- -12- 
D --0- --2- --0- --3- --5- --5- --7- --8- -10- -10- -12- -12- -14- 
G --0- --0- --0- --3- --3- --5- --5- --8- --8- -10- -10- -12- -12- 
D --0- --0- --0- --3- --3- --5- --5- --8- --8- -10- -10- -12- -12- 

G2sus G2 C Csus C (rpt 3 more times) 
Eb Ebsus Eb  C Csus C  Bb   Bbsus Bb  Csus C (rpt)

C
Gold coast slave ship bound for cotton fields
F
Sold in a market down in New Orleans
C
Scarred old slaver know he's doing alright
Bb                        C
Hear him whip the women just about midnight

CHORUS:
G G3 G Gsus    G    C    Csus                 C Csus  C
       Brown sugar, how come you taste so good, now
G G3 G Gsus    G     C    Csus                 C  Csus C
       Brown sugar, just like a young girl should,    wooo!
Eb Ebsus Eb  C Csus C Bb  Bbsus Bb Csus C

Drums are beating cold, English blood runs hot
Lady of the house wonderin' where it's gonna stop
Houseboy knows that he's doing alright
You shoulda heard him just around midnight
CHORUS
Eb Ebsus Eb  C Csus C Bb Bbsus Bb Csus C (rpt and solo over)

CHORUS #2:
Oohh come on brown sugar, how come you taste so good babe
Aaah brown sugar just like a black girl should

Aa-I bet your mama was a tent show queen
And all her boyfriends were sweet sixteen
I'm no schoolboy but I know what I like
You shoulda heard me just around midnight
CHORUS

G Gsus G Gsus G  C Csus C Csus C (rpt chords)

I said yeah yeah yeah wooo! How come, how come you taste so good?
I said yeah yeah yeah wooo! Just like a, just like a black girl should
Yeah yeah yeah wooo!


The Rolling Stones albums
2005 A Bigger Bang
1997 Bridges to Babylon
1996 The Rolling Stones Rock and Roll Circus
1994 Voodoo Lounge
1989 Steel Wheels
1986 Dirty Work
1983 Undercover
1981 Tattoo You
1980 Emotional Rescue
1978 Some Girls
1976 Black and Blue
1974 It's Only Rock 'N Roll
1973 Goats Head Soup
1972 Exile on Main St.
1971 Sticky Fingers
1969 Let It Bleed
1968 Beggars Banquet
1967 Their Satanic Majesties Request
1967 Flowers
1967 Between the Buttons
1966 Aftermath
1965 December's Children (And Everybody's)
1965 Out of Our Heads
1965 The Rolling Stones, Now!
1964 12 X 5
1964 The Rolling Stones (England's Newest Hitmakers)
Sticky Fingers tabs
01Brown Sugar tabbass tab
02Sway tabbass tab
03Wild Horses tabbass tab
04Can't You Hear Me Knocking tabbass tab
05You Gotta Move tabbass tab
06Bitch tabbass tab
07I Got the Blues tabbass tab
08Sister Morphine tabbass tab
09Dead Flowers tabbass tab
10Moonlight Mile tabbass tab

 

1