Search tabs:
Browse artists: 0-9 | A | B | C | D | E | F | G | H | I | J | K | L | M | N | O | P | Q | R | S | T | U | V | W | X | Y | Z
/ Sevendust / Home (1999) / Denial guitar tab

 ----------------------------------------------------------------------------------------------

	     SONG: Denial
	     BAND: Sevendust
	    ALBUM: Home

 ----------------------------------------------------------------------------------------------

	TUNING: tune your guitar to drop d and then down 1.5 steps (B,F#,B,E,G#,C#)


     INTRO PART A: (guitar 1)

   C#|--------------|--------------|--------------|--------------|
   G#|--------------|--------------|--------------|--------------|
    E|--4--4--4--4--|--4--4--4--4--|--4--4--4--4--|--2--2--2--2--|
    B|--4--4--4--4--|--2--2--2--2--|--2--2--2--2--|--0--0--0--0--|
   F#|--2--2--2--2--|--3--3--3--3--|--2--2--2--2--|--0--0--0--0--|
    B|--------------|--------------|--2--2--2--2--|--0--0--0--0--|

   C#|--------------|--------------|--------------|--------------|
   G#|--------------|--------------|--------------|--------------|
    E|--4--4--4--4--|--4--4--4--4--|--4--4--4--4--|--4--4--4--4--|
    B|--4--4--4--4--|--2--2--2--2--|--2--2--2--2--|--4--4--4--4--|
   F#|--2--2--2--2--|--3--3--3--3--|--2--2--2--2--|--x--x--x--x--|
    B|--------------|--------------|--2--2--2--2--|--4--4--4--4--|

   C#|--------------|--------------|
   G#|--------------|--------------|
    E|--4--4--4--4--|--4--4--4--4--|
    B|--4--4--4--4--|--2--2--2--2--|
   F#|--2--2--2--2--|--3--3--3--3--|
    B|--------------|--------------|

     INTRO PART A: (guitar 2)

   C#|--------------|--------------|--------------|--------------|
   G#|--------------|--------------|--------------|--------------|
    E|--------------|--------------|--------------|--------------|
    B|--------------|-----4--------|--------------|-----4--------|
   F#|-----7--------|--------------|-----7--------|--------------|
    B|--------------|--------------|--------------|--------------|

   C#|--------------|--------------|--------------|--------------|
   G#|--------------|--------------|--------------|--------------|
    E|--------------|--------------|--------------|--------------|
    B|--------------|-----7--------|-----5--------|-----4--------|
   F#|-----6--------|--------------|--------------|--------------|
    B|--------------|--------------|--------------|--------------|

   C#|--------------|--------------|
   G#|--------------|--------------|
    E|--------------|--------------|
    B|--------------|--------------|
   F#|-----6--------|--6h7---------|
    B|--------------|--------------|

     INTRO PART B: (guitar 1 and 2)

   C#|------------------------------|-----------------------------|
   G#|------------------------------|-----------------------------|
    E|------------------------------|-----------------------------|
    B|------------------------------|-----------------------------|
   F#|--5---------5---------5-------|----5------------------------|
    B|----3--0--2---3--0--2---3--0--|--2---3--0--2-2b---0-2b---0--|

     VERSE: (guitar 1 and 2)

   C#|--------------------------------------------------|
   G#|--------------------------------------------------|
    E|--5-4-----5-4-----5-4-----5-4---------------------|
    B|--3-2-----3-2-----3-2-----3-2---------------------|
   F#|--3-2-----3-2-----3-2-----3-2---------------------|
    B|--3-2-----3-2-----3-2-----3-2--0-0-2b----0-2b--0--|

     CHORUS: (guitar 2)

     The strumming pattern is more complicated than shown,
     but you can figure it out easily.

   C#|--------------|--------------|--------------|--------------|
   G#|--------------|--------------|--------------|--------------|
    E|--4--4--4--4--|--4--4--4--4--|--4--4--4--4--|--4--4--4--4--|
    B|--4--4--4--4--|--2--2--2--2--|--4--4--4--4--|--2--2--2--2--|
   F#|--2--2--2--2--|--3--3--3--3--|--2--2--2--2--|--0--0--0--0--|
    B|--------------|--------------|--2--2--2--2--|--0--0--0--0--|

   C#|--------------|--------------|--------------|--------------|
   G#|--------------|--------------|--------------|--------------|
    E|--4--4--4--4--|--4--4--4--4--|--4--4--4--4--|--4--4--4--4--|
    B|--4--4--4--4--|--2--2--2--2--|--4--4--4--4--|--4--4--4--4--|
   F#|--2--2--2--2--|--3--3--3--3--|--2--2--2--2--|--x--x--x--x--|
    B|--------------|--------------|--2--2--2--2--|--4--4--4--4--|


      That's about it! Enjoy!








Sevendust albums
2003 Seasons
2001 Animosity
1999 Home
1997 Sevendust
Home tabs
01Home tabbass tab
02Denial tabbass tab
03Headtrip tabbass tab
05Reconnect tabbass tab
06Waffle tabbass tab
07Rumble Fish tabbass tab
08Licking Cream tabbass tab
09Grasp tabbass tab
10Crumbled tabbass tab
11Feel So tabbass tab
13Bender tabbass tab

 

1