Search tabs:
Browse artists: 0-9 | A | B | C | D | E | F | G | H | I | J | K | L | M | N | O | P | Q | R | S | T | U | V | W | X | Y | Z
/ Sevendust / Home (1999) / Headtrip guitar tab

 ----------------------------------------------------------------------------------------------

	     SONG: Headtrip
	     BAND: Sevendust
	    ALBUM: Home
   TRANSCRIBED BY: Mitch Stevens

 ----------------------------------------------------------------------------------------------

	TUNING: down half a step and then drop d (Db,Ab,Db,Gb,Bb,Eb)



      INTRO RIFF A:

     |-----------------------------------------|
     |-----------------------------------------|
     |--------3-------------------3------------|
     |-------------0-------------------0-------|
     |-----------------------------------------|
     |--2---------------0---2---------------0--|


      INTRO RIFF B:

      This part varies every once in a while but is mostly just this

     |---------------------------|
     |---------------------------|
     |--8/9-9-9-9-9-9-9-9-9-9-9--|
     |---------------------------|
     |--6/7-7-7-7-7-7-7-7-7-7-7--|
     |---------------------------|


      CHORUS RIFF:

     |-----------------------------------------------|
     |-----------------------------------------------|    <3> this 3rd fret note is sometimes
     |---------<3>-----------------------------------|        hit at the 2nd fret
     |----------------2------------------------------|
     |--------------------2b---<1>-------------------|    <1> this 1st fret note is sometimes
     |--3--1b------------------------0--1--2---0--2--|        hit at the 5th fret


      FILL RIFF:

     |---------------------------------------------------|
     |---------------------------------------------------|
     |--7/9---9--9--10\9--9------------------------------|
     |---------------------------2----2-2--0----2--2--0--|
     |--5/7---7--7---8\7--7------2----2-2--0----2--2--0--|
     |---------------------------2----2-2--0----2--2--0--|

     
      Those are the basic riffs in the song....the rest you'll have to
      figure out yourself. Good luck!








Sevendust albums
2003 Seasons
2001 Animosity
1999 Home
1997 Sevendust
Home tabs
01Home tabbass tab
02Denial tabbass tab
03Headtrip tabbass tab
05Reconnect tabbass tab
06Waffle tabbass tab
07Rumble Fish tabbass tab
08Licking Cream tabbass tab
09Grasp tabbass tab
10Crumbled tabbass tab
11Feel So tabbass tab
13Bender tabbass tab

 

1