Search tabs:
Browse artists: 0-9 | A | B | C | D | E | F | G | H | I | J | K | L | M | N | O | P | Q | R | S | T | U | V | W | X | Y | Z
/ Snot / Get Some (1997) / The Box guitar tab

#----------------------------------PLEASE NOTE--------------------------------#
#This file is the author's own work and represents their interpretation of the#
#song. You may only use this file for private study, scholarship, or research.#
#-----------------------------------------------------------------------------#
#-- File created with Instab - http://www.pconline.com/~smcarey/instab.html --#
#-----------------------------------------------------------------------------#

Author/Artist: Snot
Title: The Box
Album: Get Some
Transcribed by: Gei
Email: l_c_f_r@hotmail.com

Tuning: drop D then 1/2 step down (Db ab db gb bb eb)

I've looking for this tab but i've found nothing for guitar, so i decide tab it myself,
but it's not simple to hear and quite hard to tab out, if there are any mystake i'm sorry
but if you think it's good rate this tab. -tanks-


Intro part1:
-|--------------------------------------------------------------------------|-
-|--------------------------------------------------------------------------|-
-|------------x\\\\\\\\\\\\\\\\\\\\\\\\\\------------------------------------------------|-
-|-x\\\\\\\\\\\\\\-----------------------------------------------------------------|-
-|-------x\\\\\\---------------------------------------------------------------|-
-|--------------------------------------------------------------------------|-

Intro part2: x2
-|--------------------------------------------------------------------------|-
-|--------------------------------------------------------------------------|-
-|-11/12-12/14-14--12\\11/12-/15-15-15----11/12-12/14-14--12\\11/12-/17-17-17-|-
-|-x-----x-----x---x---------x--x--x-----x-----x-----x---x---------x--x--x--|-
-|-9-/10-10/12-12--10\\9-/10-/13-13-13----9-/10-10/12-12--10\\9-/10-/15-15-15-|-
-|--------------------------------------------------------------------------|-
(maybe they use a delay effect or second guitar play the same thing but
 starts immediatly later)

Verse 1:

	Part 1:

Guitar 2:
-|--------------------------------------------------------------------------|-
-|--------------------------------------------------------------------------|-
-|--------------------------------------------------------------------------|-
-|--------------------------------------------------------------------------|-
-|----------------------------0-0-0-0---------------------------------------|-
-|----------------------------0-0-0-0---------------------------------------|-
Pm                            . . . .

	Part 2:

Guitar 1: w\\wah-wah
-|--------------------------------------------------------------------------|-
-|-10-10--10-10-10--10-10-10--10-10-10--10-10-10--10-10-10--10--------------|-
-|--------------------------------------------------------------------------|-
-|--------------------------------------------------------------------------|-
-|--------------------------------------------------------------------------|-
-|--------------------------------------------------------------------------|-

Guitar 2:
-|--------------------------------------------------------------------------|-
-|--------------------------------------------------------------------------|-
-|--------------------------------------------------------------------------|-
-|--------------------------------------------------------------------------|-
-|-0--5---7--0--8---4x---------------------0--5---7--0--8---4x---0--0-0-0-0-|-
-|-0--5---7--0--8---4x---------------------0--5---7--0--8---4x---0--0-0-0-0-|-
Pm .  .   .  .  .   .                      .  .   .  .  .   .    .  . . . .

Guitar 1: w\\wah-wah
-|--------------------------------------------------------------------------|-
-|-10-10--10-10-10--10-10-10--10-10-10--10-10-10--10-10-10--10--------------|-
-|--------------------------------------------------------------------------|-
-|--------------------------------------------------------------------------|-
-|--------------------------------------------------------------------------|-
-|--------------------------------------------------------------------------|-

Guitar 2:
-|--------------------------------------------------------------------------|-
-|--------------------------------------------------------------------------|-
-|--------------------------------------------------------------------------|-
-|--------------------------------------------------------------------------|-
-|-0--5---7--0--8---4x---------------------0--5---7--0--8---4x--------------|-
-|-0--5---7--0--8---4x---------------------0--5---7--0--8---4x--------------|-
Pm .  .   .  .  .   .                      .  .   .  .  .   .

Pre-chorus 1:
-|--------------------------------------------------------------------------|-
-|--------------------------------------------------------------------------|-
-|--------------------------------------------------------------------------|-
-|-0---5-7-0---8-4---0---5-7-0--8-4x---0---5-7-0---8-4---0---5-7-0--8-4x----|-
-|-0---5-7-0---8-4---0---5-7-0--8-4x---0---5-7-0---8-4---0---5-7-0--8-4x----|-
-|-0---5-7-0---8-4---0---5-7-0--8-4x---0---5-7-0---8-4---0---5-7-0--8-4x----|-

Chorus 1: x2

Guitar 1:
-|--------------------------------------------------------------------------|-
-|--------------------------------------------------------------------------|-
-|-15--15-15-15/17--17-17-17/19--19-19-19/20--------------------------------|-
-|-x---x--x--x------x--x--x------x--x--x------------------------------------|-
-|-13--13-13-13/15--15-15-15/17--17-17-17/18--------------------------------|-
-|--------------------------------------------------------------------------|-

-|--------------------------------------------------------------------------|-
-|--------------------------------------------------------------------------|-
-|-12--12-12-12/14--14-14-14/15--15-15-15/17--------------------------------|-
-|-x---x--x--x------x--x--x------x--x--x------------------------------------|-
-|-10--10-10-10/12--12-12-12/13--13-13-13/15--------------------------------|-
-|--------------------------------------------------------------------------|-

Guitar 2:
-|--------------------------------------------------------------------------|-
-|--------------------------------------------------------------------------|-
-|--------------------------------------------------------------------------|-
-|-8--8-8-8/10--10-10-10/12--12-12-12/13--5--5-5-5/7--7-7-7/8--8-8-8/10-10--|-
-|-8--8-8-8/10--10-10-10/12--12-12-12/13--5--5-5-5/7--7-7-7/8--8-8-8/10-10--|-
-|-8--8-8-8/10--10-10-10/12--12-12-12/13--5--5-5-5/7--7-7-7/8--8-8-8/10-10--|-

Post-Chorus 1: repeat intro part 2

Interlude 1:
-|-----8--------------------------------------------------------------------|-
-|-----6--------------------------------------------------------------------|-
-|-----7--5-7-5-4-----------------------------------------------------------|-
-|----------------3---------------------------------------------------------|-
-|-0-0----------------------------------------------------------------------|-
-|-0-0----------------------------------------------------------------------|-

Verse 2:

	Part 1:

Guitar 2:
-|--------------------------------------------------------------------------|-
-|--------------------------------------------------------------------------|-
-|--------------------------------------------------------------------------|-
-|--------------------------------------------------------------------------|-
-|----------------------------0-0-0-0---------------------------------------|-
-|----------------------------0-0-0-0---------------------------------------|-
Pm                            . . . .

	Part 2: x2

Guitar 1: w\\wah-wah
-|--------------------------------------------------------------------------|-
-|-10-10--10-10-10--10-10-10--10-10-10--10-10-10--10-10-10--10--------------|-
-|--------------------------------------------------------------------------|-
-|--------------------------------------------------------------------------|-
-|--------------------------------------------------------------------------|-
-|--------------------------------------------------------------------------|-

Guitar 2:
-|--------------------------------------------------------------------------|-
-|--------------------------------------------------------------------------|-
-|--------------------------------------------------------------------------|-
-|--------------------------------------------------------------------------|-
-|-0--5---7--0--8---4x---------------------0--5---7--0--8---4x---0--0-0-0-0-|-
-|-0--5---7--0--8---4x---------------------0--5---7--0--8---4x---0--0-0-0-0-|-
Pm .  .   .  .  .   .                      .  .   .  .  .   .    .  . . . .

Pre-chorus 2: same pre-chorus 2

Chorus 2: same chorus 1

Post-chorus: same post-chorus 1

Interlude 2:
-|-----8-----------------8-----------------8-----------------8--------------|-
-|-----6-----------------6-----------------6-----------------6--------------|-
-|-----7--5-7-5-4--------7--5-7-5-4--------7--5-7-5-4--------7--5-7-5-4-----|-
-|----------------3-----------------3-----------------3-----------------3---|-
-|-0-0---------------0-0---------------0-0---------------0-0----------------|-
-|-0-0---------------0-0---------------0-0---------------0-0----------------|-

Outro:
-|--------------------------------------------------------------------------|-
-|--------------------------------------------------------------------------|-
-|--------------------------------------------------------------------------|-
-|-0-5h7-0-5h7-0-5h7-8-8-8-8---8-0-5h7-0-5h7-0-5h7-8-8-8-8--8--0-5-7-0-8-4x-|-
-|-0-5h7-0-5h7-0-5h7-8-8-8-8---8-0-5h7-0-5h7-0-5h7-8-8-8-8--8--0-5-7-0-8-4x-|-
-|-0-5h7-0-5h7-0-5h7-8-8-8-8---8-0-5h7-0-5h7-0-5h7-8-8-8-8--8--0-5-7-0-8-4x-|-
   |---------------------------x2---------------------------|



Tablature Keys:

h - hammer on
p - pull off
b - bend
r - relese bend
~ - sustain
/ - slide up
\\ - slide down
v - vibrato
* - trill
x - mute string
pm - palm mute
x\\\\\\ - pick scrape (direction same as slide)


Snot albums
1997 Get Some
Get Some tabs
01Snot tabbass tab
02Stoopid tabbass tab
03Joy Ride tabbass tab
04The Box tabbass tab
05Snooze Button tabbass tab
06313 tabbass tab
07Get Some tabbass tab
08Deadfall tabbass tab
09I Jus' Lie tabbass tab
11Unplugged tabbass tab
12Tecato tabbass tab
13Mr. Brett tabbass tab
15My Balls tabbass tab
16Absent tabbass tab

 

1