Search tabs:
Browse artists: 0-9 | A | B | C | D | E | F | G | H | I | J | K | L | M | N | O | P | Q | R | S | T | U | V | W | X | Y | Z
/ Stone Roses / Second Coming (1994) / Good Times guitar tab

GOOD TIMES

Tab: Jon Reid, furryleo@hotmail.com
 
Main
                                part 1
{--------------------------------------------)
-----------------------------------3-----------------|--
-------7---------------------------3-----------------|--
-------7---5h7p5h7-----------------4-----------------|--
-------7---------------------------5-----------------|--
--5----------------------------------------3-4-5-----|--
------------------------1-----3---------3---------3--|--


----------------------------3------3---------------------------
-------7--------------------0------0-----------0---------0-----
-------7-------5-6-7------0------0----------------------------- then part 1 then
-------7----7--------------------------------------------------
--5--------------------------------------2--2------2s3------4--
---------------------------------------------------------------

-------------------------5--------2--2--3--5--
-------------------------6--------3--3--4--6--
-------------------------7--------4--4--5--7--
-------------------------5--------2--2--3--5--
-------5--4--3--0-----------------------------
--3-------------------------------------------

---------------------------------------
---------------------------------------
----------------5---7---7---7---7---5--
--7---7---7----------------------------
---------------------------------------
---------------------------------------


Stone Roses albums
1994 Second Coming
1989 The Stone Roses
Second Coming tabs
01Breaking Into Heaven tabbass tab
02Driving South tabbass tab
03Ten Storey Love Song tabbass tab
04Daybreak tabbass tab
05Your Star Will Shine tabbass tab
07Begging You tabbass tab
08Tightrope tabbass tab
09Good Times tabbass tab
10Tears tabbass tab
11How Do You Sleep tabbass tab
12Love Spreads tabbass tab

 

1