Search tabs:
Browse artists: 0-9 | A | B | C | D | E | F | G | H | I | J | K | L | M | N | O | P | Q | R | S | T | U | V | W | X | Y | Z
/ The Strokes / Room on Fire (2003) / Automatic Stop guitar tab

Tabbed by:emesk8rbk	
Strokes: Automatic Stop
Album: Room on Fire

Tablature explanation:
h = hammer on
p = pull off
^ = bend full
b = bend half
r = release bend
/ = slide up
\\ = slide down

AUTOMATIC STOP:

E|-9-9--9-9---1111-1111-9-9--9-9---1111-1111------|
B|-1111-1111--1111-1111-1111-1111--1111-1111------|
G|-1111-1111--1111-1111--1010-1010-----------------| X2
D|-------------------------------------------------|
A|-------------------------------------------------|
E|-------------------------------------------------|

E|-9-9--9-9--9-9--9-9---1111-1111-1111-1111--------|
B|-1111-1111-1111-1111--1111-1111-1111-1111--------|
G|-1111-1111-1111-1111--1111-1111-1111-1111--------|
D|-------------------------------------------------|
A|-------------------------------------------------|
E|-------------------------------------------------|
	                                             X2
E|-9-9--9-9--9-9--9-9-9-9--9-9--9-9--9-9----------|
B|-1111-1111-1111-1111-1111-1111-1111-1111---------|
G|-1010-1010-1010-1010-1010-1010-1010-1010---------|
D|-------------------------------------------------|
A|-------------------------------------------------|
E|-------------------------------------------------|

E|-------------------------------------------------|
B|-------------------------------------------------|
G|-------------------------------------------------|
D|-----------1010101010888888----------------------|
A|-9999999999------------------99999---------------|
E|-------------------------------------------------|

E|-------------------------------------------------|
B|-------------------------------------------------|
G|-------------------------------------------------|
D|-----------888888777777--------------------------|
A|-8888888888------------88888---------------------|
E|-------------------------------------------------|

E|-------------------------------------------------|
B|-------------------------------------------------|
G|-------------------------------------------------|
D|-----------10101010108888888---------------------|
A|-9999999999-----------------99999888888888-------|
E|-------------------------------------------------|

E|----------------------------------------------------|
B|-11--11----9--9--9----7-7-7-7-7-7---9--9--------9---|
G|---11--11---10-10-10---8-8-8-8-8-8---11-11-10-11-11-|
D|----------------------------------------------------|
A|----------------------------------------------------|
E|----------------------------------------------------|
                                                       X2
E|-------------------------------------------------|
B|-9--9--9--9--9--9--------------------------------|
G|--11-11-11-11-11-11------------------------------|
D|-------------------------------------------------|
A|-------------------------------------------------|
E|-------------------------------------------------|

E|-9-9--9-9---1111-1111-9-9--9-9---1111-1111------|
B|-1111-1111--1111-1111-1111-1111--1111-1111------|
G|-1111-1111--1111-1111--1010-1010-----------------|
D|-------------------------------------------------|
A|-------------------------------------------------|
E|-------------------------------------------------|


E|-9-9--9-9---1111-1111-9-9--9-9---1111-1111------|
B|-1111-1111--1111-1111-1111-1111--1111-1111------|
G|-1111-1111--1111-1111--1010-1010-----------------|
D|-------------------------------------------------|
A|-------------------------------------------------|
E|-------------------------------------------------|

E|-------------------------------------------------|
B|-------------------------------------------------|
G|-------------------------------------------------|
D|-----------1010101010888888----------------------|
A|-9999999999------------------99999---------------|
E|-------------------------------------------------|

E|-------------------------------------------------|
B|-------------------------------------------------|
G|-------------------------------------------------|
D|-----------888888777777--------------------------|
A|-8888888888------------88888---------------------|
E|-------------------------------------------------|

E|-------------------------------------------------|
B|-------------------------------------------------|
G|-------------------------------------------------|
D|-----------10101010108888888---------------------|
A|-9999999999-----------------99999888888888-------|
E|------------------------------------------9999888|

E|-9-9--9-9--9-9--9-9---1111-1111-1111-1111--------|
B|-1111-1111-1111-1111--1111-1111-1111-1111--------|
G|-1111-1111-1111-1111--1111-1111-1111-1111--------|
D|-------------------------------------------------|
A|-------------------------------------------------|
E|-------------------------------------------------|
	
E|-9-9--9-9--9-9--9-9-9-9--9-9--9-9--9-9----------|
B|-1111-1111-1111-1111-1111-1111-1111-1111---------|
G|-1010-1010-1010-1010-1010-1010-1010-1010---------|
D|-------------------------------------------------|
A|-------------------------------------------------|
E|-------------------------------------------------|

E|-------------------------------------------------------|
B|-11--11--11---9--9--9----7-7-7-7-7-7---9--9--------9---|
G|---11--11--11--10-10-10---8-8-8-8-8-8---11-11-10-11-11-|
D|-------------------------------------------------------|
A|-------------------------------------------------------|
E|-------------------------------------------------------|
                                                         X2
E|-------------------------------------------------|
B|-9--9--9--9--9--9--------------------------------|
G|--11-11-11-11-11-11------------------------------|
D|-------------------------------------------------|
A|-------------------------------------------------|
E|-------------------------------------------------|


Hey if you have any updates on this song email me.
If you want to learn other songs, from their new cd email me.  eme_sk8@yahoo.com


The Strokes albums
2003 Room on Fire
2001 Is This It
Room on Fire tabs
01What Ever Happened? tabbass tab
02Reptilia tabbass tab
03Automatic Stop tabbass tab
0412:51 tabbass tab
05You Talk Way Too Much tabbass tab
06Between Love & Hate tabbass tab
07Meet Me in the Bathroom tabbass tab
08Under Control tabbass tab
09The Way It Is tabbass tab
10The End Has No End tabbass tab
11I Can't Win tabbass tab

 

1