Search tabs:
Browse artists: 0-9 | A | B | C | D | E | F | G | H | I | J | K | L | M | N | O | P | Q | R | S | T | U | V | W | X | Y | Z
/ The Strokes / Room on Fire (2003) / I Can't Win guitar tab

Strokes - I Cant Win
Tabbed By: strokeskid82591
Email: i_wuz_h3r3@yahoo.com

Tuning: Standard (E A D G B E)



guitar 1 (intro)
E|-------------------------------------||
B|4-4-4-4-4-4-4-4-4-4-4-4-4-4-4-4-4-4-4||
G|6-6-4-4-4-6-6-4-4-4-4-6-6-4-4-4-6-6-4||
D|4-4-4-4-4-4-4-4-4-4-4-4-4-4-4-4-4-4-4||
A|-------------------------------------||
E|-------------------------------------||

guitar 2 (intro)
E|-------------------------------------||
B|4-4-4-4-4-4-4-4-4-9-9-9-9-9-9-9-9-9--||
G|4-4-4-4-4-4-4-4-4-9-9-9-9-9-9-9-9-9--||
D|4-4-4-4-4-4-4-4-4-9-9-9-9-9-9-9-9-9--||
A|2-2-2-2-2-2-2-2-2-7-7-7-7-7-7-7-7-7--||
E|-------------------------------------||


guitar 2 (verse)
E|--------------------------------------------------------------||
B|4-4-4-4-4-4-4-4-4-4-4-4-4-4-4-4-4-4-4-4-4-4-4-4-4-4-4-4-4-44-4||
G|4-4-4-4-4-4-4-4-4-4-4-4-4-4-4-4-4-4-4-4-4-4-4-4-4-4-4-4-4-44-4||
D|4-4-4-4-2-2-1-1-4-4-4-4-2-2-1-1-2-2-2-2-1-1-----2-2-2-2-1-1---||
A|--------------------------------------------4-4------------4-4||
E|--------------------------------------------------------------||

chorus is same as intro

post chorus, guitar 1:
E|--------------------------------9------------9------||
B|9-12-9-14-9-12-7-11-7-12-7-11-7--7-11-7-11-7---7-11-||
G|----------------------------------------------------||
D|----------------------------------------------------||
A|----------------------------------------------------||
E|----------------------------------------------------||

if you know the fast part of the solo then email it to me!


The Strokes albums
2003 Room on Fire
2001 Is This It
Room on Fire tabs
01What Ever Happened? tabbass tab
02Reptilia tabbass tab
03Automatic Stop tabbass tab
0412:51 tabbass tab
05You Talk Way Too Much tabbass tab
06Between Love & Hate tabbass tab
07Meet Me in the Bathroom tabbass tab
08Under Control tabbass tab
09The Way It Is tabbass tab
10The End Has No End tabbass tab
11I Can't Win tabbass tab

 

1