Search tabs:
Browse artists: 0-9 | A | B | C | D | E | F | G | H | I | J | K | L | M | N | O | P | Q | R | S | T | U | V | W | X | Y | Z
/ The Strokes / Room on Fire (2003) / The Way It Is guitar tab

Strokes - The Way It Is
Tabbed By: sHaZwaN
Email: shazwan20@hotmail.com

Tuning: Standard (E A D G B E)



Chords:
     B    B7   F#   F#(2) F#7   E
E||--7----7----2----------2-------------|
B||--7----7----2----11----2-----9-------|
G||--8----8----3----11----3-----9-------|
D||--9----7----4----11----4-----9-------|
A||--9----9----4----9-----4-----7-------|
E||--7----7----2----------2-------------|




 x4

     B     B7
E||--7--7--7--7----7--7--7----7--7--7--7--7--7--7--|
B||--7--7--7--7----7--7--7----7--7--7--7--7--7--7--|
G||--8--8--8--8----8--8--8----8--8--8--8--8--8--8--|
D||--9--9--7--9----9--7--9----9--7--9--9--9--7--9--|
A||--9--9--9--9----9--9--9----9--9--9--9--9--9--9--|
E||--7--7--7--7----7--7--7----7--7--7--7--7--7--7--|





 (listen for timing)
    She   was    asleep    and     the    problem   would    stay...
E||-------------------------------------------|------------------------------------------||
B||-----9-------------------------------------|------------------------------------------||
G||--9---------11--------8--11p--8--9---------|---6--9p--6--8--------6--9p---6--8--------||
D||-------------------------------------------|------------------------------------------||
A||-------------------------------------------|------------------------------------------||
E||-------------------------------------------|------------------------------------------||

 - just strums E chord







     I wish it was not true... but that's the way it is.
     B                          F#
E||--7--7--7--7--7--7--7--7--|--2--2--2--2--2--2--2--2--||
B||--7--7--7--7--7--7--7--7--|--2--2--2--2--2--2--2--2--||
G||--8--8--8--8--8--8--8--8--|--3--3--3--3--3--3--3--3--||
D||--9--9--9--9--9--9--9--9--|--4--4--4--4--4--4--4--4--||
A||--9--9--9--9--9--9--9--9--|--4--4--4--4--4--4--4--4--||
E||--7--7--7--7--7--7--7--7--|--2--2--2--2--2--2--2--2--||


     B                          F#
E||--7--7--7--7--7--7--7--7--|----------------------------------||
B||--7--7--7--7--7--7--7--7--|--11--11--11--11--11--11--11--11--||
G||--8--8--8--8--8--8--8--8--|--11--11--11--11--11--11--11--11--||
D||--9--9--9--9--9--9--9--9--|--11--11--11--11--11--11--11--11--||
A||--9--9--9--9--9--9--9--9--|--9---9---9---9---9---9---9---9---||
E||--7--7--7--7--7--7--7--7--|----------------------------------||







E||-------------------------------------------------------|
B||-------------------------------------------------------|
G||-------------------------------------------------------|
D||--9--9--9--9----9--9--9/-13--13--13--13--11--11--9--9--|
A||-------------------------------------------------------|
E||--7--7--7--7----7--7--7/-11--11--11--11--9---9---7--7--|

E||-------------------------------------------------------|
B||-------------------------------------------------------|
G||-------------------------------------------------------|
D||--9--9--9--9----9--9--9/-13--13--13--13--11--11--9--9--|
A||-------------------------------------------------------|
E||--7--7--7--7----7--7--7/-11--11--11--11--9---9---7--7--|

E||-------------------------------------------------|
B||-------------------------------------------------|
G||-------------------------------------------------|
D||--4--4--4--4----4--4--4/-8--8--8--8--6--6--4--4--|
A||-------------------------------------------------|
E||--2--2--2--2----2--2--2/-6--6--6--6--4--4--2--2--|

E||-------------------------------------------------------|
B||-------------------------------------------------------|
G||-------------------------------------------------------|
D||--8--8--8--8----8--8--8/-13--13--13--13--11--11--9--9--|
A||-------------------------------------------------------|
E||--6--6--6--6----6--6--6/-11--11--11--11--9---9---7--7--|
                            * Gtr. 1 ends break here with F# octave strummed twice.



     B     B7
E||--7--7--7--7----7--7--7----7--7--7--7--7--7--7--|
B||--7--7--7--7----7--7--7----7--7--7--7--7--7--7--|
G||--8--8--8--8----8--8--8----8--8--8--8--8--8--8--|
D||--9--9--7--9----9--7--9----9--7--9--9--9--7--9--|
A||--9--9--9--9----9--9--9----9--9--9--9--9--9--9--|
E||--7--7--7--7----7--7--7----7--7--7--7--7--7--7--| x2

  F#    F#7
--2--2--2--2----2--2--2----2--2--2--2--2--2--2--|
--2--2--2--2----2--2--2----2--2--2--2--2--2--2--|
--3--3--3--3----3--3--3----3--3--3--3--3--3--3--|
--4--4--2--4----4--2--4----4--2--4--4--4--2--4--|
--4--4--4--4----4--4--4----4--4--4--4--4--4--4--|
--2--2--2--2----2--2--2----2--2--2--2--2--2--2--| x2
                           * Gtr. 2 ends break here with F# chord strummed twice.



Song Structure
- Intro  (x4)
- Verse  (x1)
- Intro  (x2)
- Verse  (x2)
- Chorus (x3)
- Verse  (x1)
- Break  (x2)
- Verse  (x2)
- Chorus (x4)
- both guitars end with F# chord


The Strokes albums
2003 Room on Fire
2001 Is This It
Room on Fire tabs
01What Ever Happened? tabbass tab
02Reptilia tabbass tab
03Automatic Stop tabbass tab
0412:51 tabbass tab
05You Talk Way Too Much tabbass tab
06Between Love & Hate tabbass tab
07Meet Me in the Bathroom tabbass tab
08Under Control tabbass tab
09The Way It Is tabbass tab
10The End Has No End tabbass tab
11I Can't Win tabbass tab

 

1