Search tabs:
Browse artists: 0-9 | A | B | C | D | E | F | G | H | I | J | K | L | M | N | O | P | Q | R | S | T | U | V | W | X | Y | Z
/ 30 Seconds to Mars / 30 Seconds to Mars (2002) / Oblivion bass tab

Key:
\ = slide down
/ = slide up

 -Intro (guitar)-

Verse 1 0:20

F|--------------------------------------------------------------------
C|--------------------------------------------------------------------
G|---------------3-------------------------------3-------------------
C|-5---1----3-------3----8--7-----5---1---3------3---8-----------

 -(guitar)-

Chorus 1 0:50

F|-----------------------------------------------------------------------------------------------
C|----------------------------------------------------------------------------------------------
G|---------------------------------------------------------------------------8------------6----
C|--(0//13\\)-1-----3-----5-----8----10--8--7--8-----1----3-----5-----8------10---8--------

 -intro (guitar)-

Verse 2 1:15

F|---------------------------------------------------------------------
C|---------------------------------------------------------------------
G|---------------3-------------------------------3--------------------
C|-5---1----3-------3----8--7-----5---1---3------1---3---5---8---

 -(guitar)-

break 1:45

F|-------------
C|-------------
G|--4---2---1--
C|-------------

Chorus 2 1:46

F|-------------------------------------------------------------------------------------------------
C|-------------------------------------------------------------------------------------------------
G|-------------------------------------------(2x)-----------------------------8------------6-----
C|--1-----3-----5-----8----10--8--7--8-----------1----3-----5-----8----------10---8--------



Breakdown 2x 2:19

F|-----------------------------------
C|-----------------------------------
G|---------6-6-----3-3-------------
C|--5-5--------------------3-3\\---



Chorus 2:39

F|--------------------------------------------------------------------------------------------------------------------
C|---------------------------------------------------------------------------------------------------------------------
G|-------------------------------------------------------------------------4----------------------------8\\-----------
C|--1-----3-----5----8----10--8--7--8---------1-----3-----5-----8----------1-----3-----5----8---------10\\---

F|---------------------------------------------------------------------------------------
C|---------------------------------------------------------------------------------------
G|---------------------------8-------------6-------------------------------------------
C|--1-----3-----5-----8--------10---8-----------0--------------0----------------0--


30 Seconds to Mars albums
2002 30 Seconds to Mars
30 Seconds to Mars tabs
01Capricorn (A Brand New Name) tabbass tab
02Edge of the Earth tabbass tab
03Fallen tabbass tab
04Oblivion tabbass tab
05Buddha for Mary tabbass tab
06Echelon tabbass tab
07Welcome to the Universe tabbass tab
09End of the Beginning tabbass tab
1093 Million Miles tabbass tab
11Year Zero tabbass tab
12Capricorn tabbass tab

 

1