Search tabs:
Browse artists: 0-9 | A | B | C | D | E | F | G | H | I | J | K | L | M | N | O | P | Q | R | S | T | U | V | W | X | Y | Z
/ / / bass tab

Bryan Adams - Summer of
Tabbed By: Poguemahone
Email: gavin.johnson@virgin.net

Tuning: Standard (E A D G)

It's all there and in the right order. The notes/chords for the bridge,
(Man we were killing time.......) arent what they play on the DVD or on the
album, but they do fit with in with the song if you are playing it live. The
end may be longer and when my band plays it we just jam it out at the end.

VERSE1
G|---------------------------------|--------------------------------|
D|---------------------------------|--------------------------------|
A|5--------------------------------|-0------------------------------|
E|---------------------------------|--------------------------------|
    I got my first real six string    Bought it at the five and dime
G|---------------------------------|-----------------------||
D|---------------------------------|-----------------------||
A|5--------------------------------|-0---------------------||
E|---------------------------------|-----------------------||
   Played it till my fingers bled     it was the summer of '69

VERSE2
G|-------------|---------------|-------------|-------------|
D|-------------|7-7-7-7-7-77-7-|-------------|7-7-7-7-77-7-|
A|5-5-5-5-55-5-|---------------|5-5-5-5-55-5-|-------------|
E|-------------|---------------|-------------|-------------|

G|----------|----------|----------|----------|----------|----------|
D|----------|----------|----------|----------|----------|----------|
A|2-2-22-22-|0-0-00-00-|5-5-55-55-|----------|2-2-22-22-|0-0-00-00-|
E|----------|----------|----------|3-3-33-33-|----------|----------|

G|----------|----------|----------|----------|-------------|-------------|
D|----------|5-5-55-55-|----------|----------|-------------|-------------|
A|5-5-55-55-|----------|2---------|0---------|5-5-5-5-55-5-|5-5-5-5-55-5-|
E|----------|----------|----------|----------|-------------|-------------|

VERSE3
G|-------------|---------------|--------------|--------------|--------------|
D|-------------|7-7-7-7-7-77-7-|--------------|--------------|--------------|
A|5-5-5-5-55-5-|---------------|5-5-5-5-55-55-|--------------|--------------|
E|-------------|---------------|--------------|3h55-3h55-3h5-|3h55-3h55-3h5-|

G|----------|----------|----------|----------|----------|----------|
D|----------|----------|----------|5-5-55-55-|----------|----------|
A|2-2-22-22-|0-0-00-00-|5-5-55-55-|----------|2-2-22-22-|0-0-00-00-|
E|----------|----------|----------|----------|----------|----------|
                                                INTERLUDE1
G|----------|----------|----------|----------|  |-------------|-------------|
D|----------|5-5-55-55-|----------|----------|  |-------------|7-7-7-7-77-7-|
A|5-5-55-55-|----------|2-2-22-22-|0---------|  |5-5-5-5-55-5-|-------------|
E|----------|----------|----------|----------|  |-------------|-------------|

G|-------------|---------------|-------------|---------------|-------------|
D|-------------|7-7-7-7-7-77-7-|-------------|7-7-7-7-7-77-7-|-------------|
A|5-5-5-5-55-5-|---------------|5-5-5-5-55-5-|---------------|5-5-5-5-55-5-|
E|-------------|---------------|-------------|---------------|-------------|
                   BRIDGE
G|-------------|  |----------|----------|----------|----------|----------|
D|7-7-7-7-77-7-|  |----------|----------|----------|----------|----------|
A|-------------|  |----------|1-1-1-1-1-|----------|5-5-3-3-2-|----------|
E|-------------|  |1-1-1-1-1-|----------|3-3-3-3-3-|----------|1-1-1-1-1-|
                                      VERSE4
G|----------|----------|----------|   |--------------|--------------|
D|----------|----------|----------|   |--------------|7-7-77-77-7-7-|
A|1-1-1-1-1-|----------|----------|   |5-5-55-55-5-5-|--------------|
E|----------|3-3-3-3-3-|3-3-3-3-3-|   |--------------|--------------|

G|--------------|--------------|--------------|--------------|--------------|
D|--------------|7-7-77-77-7-7-|--------------|--------------|--------------|
A|5-5-55-55-5-5-|--------------|2-2-22-22-2-2-|0-0-00-00-0-0-|5-5-55-55-5-5-|
E|--------------|--------------|--------------|--------------|--------------|

G|--------------|--------------|--------------|--------------|--------------|
D|5-5-55-55-5-5-|--------------|--------------|--------------|--------------|
A|--------------|2-2-22-22-2-2-|0-0-00-00-0-0-|5-5-55-55-5-5-|--------------|
E|--------------|--------------|--------------|--------------|3-3-33-33-3-3-|

G|---------|---------|--------------|----------------||---------------|-----------------||
D|---------|---------|--------------|----------------||*--------------|12-12-12-11-9-7-*||
A|2--------|0--------|5-5-5-5-5-5-5-|5-5-5-5-5-5-5-5-||*555-000-5-555-|----------------*||
E|---------|---------|--------------|----------------||---------------|-----------------||


G|--------------||
D|--------------||
A|5--5--5--5--5-||
E|--------------||


albums
tabs

 

1