Search tabs:
Browse artists: 0-9 | A | B | C | D | E | F | G | H | I | J | K | L | M | N | O | P | Q | R | S | T | U | V | W | X | Y | Z
/ Candlemass / Nightfall (1987) / At The Gallows End bass tab

Artist: Candlemass

Song: "At The Gallows End"

Album: "Nightfall" (1987)

Notes: Drop tuning down 1/2 step.


	Gb-------------------------------|
	Db-------GUITAR-INTRO------------|
	Ab--------BASS-RESTS-------------|
	Eb-------------------------------|




	Gb--------------------------------------|
	Db--------------------------------------|
	Ab--------------------------------------|
	Eb--5----------3----------1----------0--|

	Gb--------------------------------------|
	Db--------------------------------------|
	Ab--------------------------------------|
	Eb--5----------3----------1----------0--|




	Gb---------------------------------------|
	Db---------------------------------------|
	Ab---------------------------------------|
	Eb-----------------------------------7/--|

	Gb---------------------------------------|
	Db---------------------------------------|
	Ab---------------------------------------|
	Eb--0-0--0-0--0-0--0-0--0-1-3-4-3-1-0-1--|

	Gb---------------------------------------|
	Db---------------------------------------|
	Ab---------------------------------------|
	Eb--0-0--0-0--0-0--0-0--0-1-3-4-3-1-0-1--|

	Gb---------------------------------------|
	Db---------------------------------------|
	Ab---------------------------------------|
	Eb--0-0--0-0--0-0--0-0--0-1-3-4-3-1-0-1--|

	Gb---------------------------------------|
	Db---------------------------------------|
	Ab---------------------------------------|
	Eb--0-0--0-0--0-0--0-0--0-1-3-4-3-1-0-1--|




	Gb-------------------------|-------------------------|
	Db-------------------------|-------------------------|
	Ab-------2----1----------3-|------2----1----3--3--2--|
	Eb--0--------------2--3----|-0-----------------------|

	Gb-------------------------|-------------------------|
	Db-------------------------|-------------------------|
	Ab-------2----1----------3-|------2----1----3--3--2--|
	Eb--0--------------2--3----|-0-----------------------|


        (Play x 10)
	Gb-----------------------------------------|
	Db-----------------------------------------|
	Ab-----------------------------------------|
	Eb----0-0--0-0--0-0--0-0--0-1-3-4-3-1-0-1--|



	Gb-------------|-------------|-------------|-------------|
	Db-------------|-------------|-------------|-------------|
	Ab--2----4--5--|--1----2--4--|--2----4--5--|--1----2--4--|
	Eb-------------|-------------|-------------|-------------|

	Gb--------------|-----------|----------------------|
	Db--------------|-----------|----------------------|
	Ab--7----9--10--|--6---9--7-|----------0--1--1-----|
	Eb--------------|-----------|-0--2--3-----------0--|





	Gb--------------------------------------|
	Db--------------------------------------|
	Ab--------------------------------------|
	Eb--5----------3----------1----------0--|

	Gb--------------------------------------|
	Db--------------------------------------|
	Ab--------------------------------------|
	Eb--5----------3----------1----------0--|



	Gb---------------------------------------|
	Db---------------------------------------|
	Ab---------------------------------------|
	Eb-----------------------------------7/--|

	Gb---------------------------------------|
	Db---------------------------------------|
	Ab---------------------------------------|
	Eb--0-0--0-0--0-0--0-0--0-1-3-4-3-1-0-1--|

	Gb---------------------------------------|
	Db---------------------------------------|
	Ab---------------------------------------|
	Eb--0-0--0-0--0-0--0-0--0-1-3-4-3-1-0-1--|

	Gb---------------------------------------|
	Db---------------------------------------|
	Ab---------------------------------------|
	Eb--0-0--0-0--0-0--0-0--0-1-3-4-3-1-0-1--|

	Gb---------------------------------------|
	Db---------------------------------------|
	Ab---------------------------------------|
	Eb--0-0--0-0--0-0--0-0--0-1-3-4-3-1-0-1--|




	Gb-------------------------|-------------------------|
	Db-------------------------|-------------------------|
	Ab-------2----1----------3-|------2----1----3--3--2--|
	Eb--0--------------2--3----|-0-----------------------|

	Gb-------------------------|-------------------------|
	Db-------------------------|-------------------------|
	Ab-------2----1----------3-|------2----1----3--3--2--|
	Eb--0--------------2--3----|-0-----------------------|



	 (play x 10)
	Gb---------------------------------------|
	Db---------------------------------------|
	Ab---------------------------------------|
	Eb--0-0--0-0--0-0--0-0--0-1-3-4-3-1-0-1--|




	Gb-------------|-------------|-------------|-------------|
	Db-------------|-------------|-------------|-------------|
	Ab--2----4--5--|--1----2--4--|--2----4--5--|--1----2--4--|
	Eb-------------|-------------|-------------|-------------|

	Gb--------------|-----------|---------------------|
	Db--------------|-----------|---------------------|
	Ab--7----9--10--|--6---9--7-|----------0--1--1----|
	Eb--------------|-----------|-0--2--3-------------|



        Under Guitar Solo (play x 4)
	Gb------------------------------------------------------------|
	Db------------------------------------------------------------|
	Ab------------------------------------------------------8--7--|
	Eb--3---/5--5--5---3---/6--6--3---3---/5--5--5/6--5--3--------|


         (Play x 2)
	Gb-------------------------------------------------|
	Db-------------------------------------------------|
	Ab----------------------------------------------4--|
	Eb--0--0--1--/4--3--1--0--1--0--0--1--/4--3--1-----|



	Gb---------------------------------------|
	Db---------------------------------------|
	Ab--------------4--4---------------------|
	Eb--0--1--3--0---------------------------|



Last Verse (play x 10)
	Gb---------------------------------------|
	Db---------------------------------------|
	Ab---------------------------------------|
	Eb--0-0--0-0--0-0--0-0--0-1-3-4-3-1-0-1--|


Last Chorus


	Gb-------------|-------------|-------------|-------------|
	Db-------------|-------------|-------------|-------------|
	Ab--2----4--5--|--1----2--4--|--2----4--5--|--1----2--4--|
	Eb-------------|-------------|-------------|-------------|

	Gb--------------|-----------|---------------------|
	Db--------------|-----------|---------------------|
	Ab--7----9--10--|--6---9--7-|----------0--1--1----|
	Eb--------------|-----------|-0--1--3-----------0-|


Candlemass albums
2005 Candlemass
1989 Tales Of Creation
1988 Ancient Dreams
1987 Nightfall
1986 Epicus Doomicus Metallicus
Nightfall tabs
02The Well Of Souls tabbass tab
03Codex Gigas tabbass tab
04At The Gallows End tabbass tab
05Samarithan tabbass tab

 

1