Search tabs:
Browse artists: 0-9 | A | B | C | D | E | F | G | H | I | J | K | L | M | N | O | P | Q | R | S | T | U | V | W | X | Y | Z
/ Coldplay / Acoustic CD (2000) / Yellow bass tab

====================
>From            : Robin Taylor 
Artist          : Coldplay
Song            : Yellow
Album           : Parachutes   
Bass Performance: Unknown bass player
Comments:       : This is now a 2nd update from the original tab
                  and i think it is now finally correct. 
                  If you have any comments then you can 
                  e-mail me at DaBassist@flea.co.uk.
---
Strings: E ,A ,D ,G 
Symbols explanations:
  H: hammer on  P: pull off
  +: slap       .: pop
  \: slide up   /: slide down
  --x~~x~~x: triplets
====================

Intro.
G|--------|--------|--------|--------|--------|--------|--------|---------|
D|--------|--------|--------|--------|--------|--------|--------|---------|
A|--------|--------|--------|--------|-9-9-9-9|-9-9-9-9|-9-9-9-9|-9-9-9-9-|
E|-7-7-7-7|-7-7-7-7|-7-7-7-7|-7-7-7-7|--------|--------|--------|---------|


G|--------|--------|--------|--------|--------|--------|--------|---------|
D|--------|--------|--------|--------|--------|--------|--------|---------|
A|-7-7-7-7|-7-7-7-7|-7-7-7-7|-7-7-7-7|--------|--------|--------|---------|
E|--------|--------|--------|--------|-7-7-7-7|-7-7-7-7|-7-7-7-7|-7-7-7-7-|


Verse.
G|--------|--------|--------|--------|--------|--------|--------|---------|
D|--------|--------|--------|--------|--------|--------|--------|---------|
A|--------|--------|--------|--------|-9-9-9-9|-9-9-9-9|-9-9-9-9|-9-9-9-9-|
E|-7-7-7-7|-7-7-7-7|-7-7-7-7|-7-7-7-7|--------|--------|--------|---------|


G|--------|--------|--------|---------|
D|--------|--------|--------|---------|
A|-7-7-7-7|-7-7-7-7|-7-7-7-7|-7-7-7-7-|
E|--------|--------|--------|---------| x2

....Then play intro once.


Chorus.
G|--------|--------|--------|---11-11-11-|
D|-------6|--6--9--|-6------|------------|
A|-7------|--------|-------9|------------|
E|--------|--------|--------|------------| x2


Part after chorus with slight variation.
G|--------|--------|--------|---11-11-11|--------|
D|-------6|--6--9--|-6------|-----------|--------|
A|-7------|--------|-------9|-----------|-7------|
E|--------|--------|--------|-----------|--------|


....Then play intro.
....play verse x1
....play intro.
....play chorus x2 and part after chorus.
....play intro.
....play verse x2

....and finish on :-


G|---------|
D|---------|
A|---------|
E|-7-------|


Coldplay albums
2005 X&Y
2002 A Rush of Blood to the Head
2001 Don't Panic
2000 Acoustic CD
2000 Parachutes
Acoustic CD tabs
01Sparks tabbass tab
02Careful Where You Stand tabbass tab
03Yellow tabbass tab
04See You Soon tabbass tab

 

1