Search tabs:
Browse artists: 0-9 | A | B | C | D | E | F | G | H | I | J | K | L | M | N | O | P | Q | R | S | T | U | V | W | X | Y | Z
/ Coldplay / Parachutes (2000) / High Speed bass tab

Intro
|---------|------------|----------|------------|
|---------|------------|----------|------------| x2
|---------|------------|----------|------------|
|-6-----6/|8-------1-3-|-6------6/|8------(1-3)|

Verse 1
|-------|-------|-------|-------|
|-------|-------|-------|-------|
|-------|-------|-------|-------|
|-3-----|-33----|-33----|-33----|

|------|-------|-------|-------|------------|------|-------|
|------|-------|-------|-------|------------|------|-------|
|-6----|-------|-------|-66----|----0h66-6--|------|-------|
|------|-33----|-33----|-------|----------6|-3----|-33-----|

|------|---------|------|------|------|----------|------|-----|
|------|---------|------|------|------|----------|------|-----|
|-6----|----0h66-|------|------|------|----------|------|-----|
|------|--------6|-33---|-33---|-6----|----0h66-1|-3----|-----|

|-------------|-------------|-------------|------|
|-------------|-------------|-------------|------|
|-11--1-11--10|-33--3-33-0--|-11-1-11---10|-3----|
|----------3--|------------3|----------3--|------|

|----------------|----------------|----------------|--------------|
|--------3-------|--------3-------|--------3-------|--------3-----|
|----3h5------3h5|----3h5------3h5|----3h5------3h5|----3h5-------|
|-33-------------|-33-------------|-33-------------|-33-----------|

Verse 2		
|-------|-------|-------------|-----------|------|-----------|
|-------|-------|------3------|------3----|------|-----------|
|-6-----|-------|---3h5----3h5|---3h5---5-|-6----|-----0h66--|
|-------|-------|-33----------|-33--------|------|---------6-|

|------------|-----------|------|-------------|
|------3-----|------3----|------|-------------|
|---3h5---3h5|---3h5-----|------|-------------|
|-33---------|-33--------|-6----|-------0h66-1|

|------------|-----------|
|------3-----|------3----|
|---3h5---3h5|---3h5-----|
|-33---------|-33--------|

It sounds 100% correct to me- email me if theres something wrong.
Spitfireute@socal.rr.com


Coldplay albums
2005 X&Y
2002 A Rush of Blood to the Head
2001 Don't Panic
2000 Acoustic CD
2000 Parachutes
Parachutes tabs
01Don't Panic tabbass tab
02Shiver tabbass tab
03Spies tabbass tab
04Sparks tabbass tab
05Yellow tabbass tab
06Trouble tabbass tab
07Parachutes tabbass tab
08High Speed tabbass tab
09We Never Change tabbass tab
10Everything's Not Lost tabbass tab
11Life Is For Living tabbass tab

 

1