Search tabs:
Browse artists: 0-9 | A | B | C | D | E | F | G | H | I | J | K | L | M | N | O | P | Q | R | S | T | U | V | W | X | Y | Z
/ De Heideroosjes / Fifi (1996) / Kill the human race bass tab

G |--2--5-----------|
D |--------5--2-----|
A |-----------------|
E |-----------------|
dit door heel het liedje

of je kan ook spelen

G |--2--------------|
D |-----0-----2-----|
A |--------0--------|
E |-----------------|
dit is hetzelfde, maar anders gespeeld


De Heideroosjes albums
1999 Schizo
1996 Fifi
Fifi tabs
01Break the public peace tabbass tab
02Nothing for free tabbass tab
04Klapvee ! tabbass tab
07I can't change the world tabbass tab
08O.P.A. tabbass tab
15De Neandertaler tabbass tab
16Kill the human race tabbass tab

 

1