Search tabs:
Browse artists: 0-9 | A | B | C | D | E | F | G | H | I | J | K | L | M | N | O | P | Q | R | S | T | U | V | W | X | Y | Z
/ Iggy Pop / Lust for Life (1977) / Passenger bass tab

Iggy Pop - The Passenger
By Robthebank




G|-------------------------|-------------------------|
D|-------3-3----------2----|-------3-3----------2----|
A|-----------3-3--0h2---2--|-----------3-3--0h2---2--|
E|--5-5--------------------|--5-5--------------------|

And that be it, repeat the whole song. Bend the first three notes
slightly to give it some character.

Here's the root note bass line if you're lazy or just want the notes.


    Am	  F	C     G       Am	  F	C     G
G|--------------------------|--------------------------|
D|--------------------------|--------------------------|
A|---------------3-3-3------|---------------3-3-3------|
E|--5-5-5--1-1-1-------3-3-3|--5-5-5--1-1-1-------3-3-3|


Iggy Pop albums
2005 Penetration
2003 Skull Ring
2001 Beat Em Up
1999 Avenue B
1996 Naughty Little Doggie
1993 American Caesar
1990 Brick by Brick
1988 Instinct
1986 Blah Blah Blah
1979 New Values
1977 The Idiot
1977 Lust for Life
Lust for Life tabs
01Lust for Life tabbass tab
03Some Weird Sin tabbass tab
04The Passenger tabbass tab

 

1