Search tabs:
Browse artists: 0-9 | A | B | C | D | E | F | G | H | I | J | K | L | M | N | O | P | Q | R | S | T | U | V | W | X | Y | Z
/ Iggy Pop / Skull Ring (2003) / Little Know It All bass tab

Band: Iggy Pop (feat Sum 41)
Song: Little Know It All
Tuning: flat (Eb Ab Db Gb)





Guitar Intro

Bridge: 5 times			    then this

Gb:--------------------------------------------|-------------
Db:--------------------------------------------|-------------
Ab:-------------------5----5--5----------------|-----0---2---
Eb:--2--2---0h2---0---------------5----5--5----|--0----------

Verse: 3x times                              then this

Gb:-----------------------------------------|----------------
Db:-----------------------------------------|----------------
Ab:-------------------5----5--5-------------|--------0----2--
Eb:--2--2---0h2---0---------------5----5--5-|--0-------------


Chorus:                                             1st & 3rd chorus ending    2nd ending

Gb:-------------------------------------------------|--------------------|---------------
Db:-------------------------------------------------|--------------------|---------------
Ab:----------5-5--5--5----------------7-7-----------|------0-------------|--4-------7----
Eb:2--2-2----------------5--5--5--5-----------------|--0-------0---2-----|------5-------4




For the solo play the verse. I really hate sum 41 but love Iggy Pop and I have to admit this song is
amazing considering the kinda music they show on MTV these days.
Enjoy.  Any comments just post them


Iggy Pop albums
2005 Penetration
2003 Skull Ring
2001 Beat Em Up
1999 Avenue B
1996 Naughty Little Doggie
1993 American Caesar
1990 Brick by Brick
1988 Instinct
1986 Blah Blah Blah
1979 New Values
1977 The Idiot
1977 Lust for Life
Skull Ring tabs
06Private Hell tabbass tab
07Little Know It All tabbass tab
14Supermarket tabbass tab

 

1